Papa Roach - Blood Brothers Chords & Tabs

 

Blood Brothers Chords & Tabs

Papa Roach Chords & Tabs

Version: 2 Type: Bass Tab 0 ratings
1 star 2 stars 3 stars 4 stars 5 stars
comments

Blood Brothers Bass Tab

Song:  Blood Brothers
Artist:  Papa Roach
Tabbed by:  Jeremy Nelson (jnelson646@aol.com)

I'm pretty sure this is how it goes, it sounds right when I play it.

Drop D Tuning

G:------------|
D:--0-0-------|
A:------------|
D:--------0-0-|
[ Tab from: http://www.guitartabs.cc/tabs/p/papa_roach/blood_brothers_btab_ver_2.html ]
then
G:--7-7-10-7-9-7----7-7-10-7--------7-------|
D:---------------10-----------10-10-----10--|
A:------------------------------------------|
D:------------------------------------------|

Verse
G:----------------------------------|
D:--0-0-3-0-2-0-----0-0-3-0---------|
A:---------------3-------------3-3--|
D:----------------------------------|

Little bass fill
G:-----------|
D:--00---00--|
A:-----------|
D:-----------|

Chorus
G:-----------|
D:-----------|
A:-----------|
D:--00-0-00--|
Comments