Papa Roach - Black Clouds Chords & Tabs

 

Black Clouds Chords & Tabs

Papa Roach Chords & Tabs

Version: 1 Type: Bass Tab 0 ratings
1 star 2 stars 3 stars 4 stars 5 stars
comments

Black Clouds Bass Tab

Band- Papa Roach
Album- LoveHateTragedy
Song- Black Clouds
Tuning- Standard

/ - slide up
\ - slide down
h - hammer on
~ - let ring


Intro

G|----------------------------------------|
D|----------------------------------------|
A|----------1~----------------------------|
E|6~----6-\-----------6~----6-\-2~----2-/-|
B|----------0~----0-/---------------------|


Verse

G|----------------------------|-----------------------------| x3
D|----------------------------|-----------------------------|
A|----------------------------|-----------------------------|
E|6--6-6-6--6-6-6--6-6-6--6-6-|6--6-6-6--6-6-6--6-6-6-4-6-4-|
B|----------------------------|-----------------------------|

G|----------------------------|-----------------------------|
D|----------------------------|-----------------------------|
A|----------------------------|-----------------------------|
E|2--2-2-2--2-2-2--2-2-2--2-2-|2--2-2-2--2-2-2--2-2-2---2~--|
B|----------------------------|-----------------------4-----|


Prechorus

G|----------------------------|----------------------------|
D|----------------------------|----------------------------|
A|----------4~----------------|----------4~----------------|
E|--------------------2~--1~--|--------------------2~--1~--|
B|4~----2~------4~------------|4~----2~------4~------------|

G|----------------------------------------|
D|----------------------------------------|
A|----------------------------------------|
E|---------1--1--1--2--2--2--4--4--4--4~--|
B|4--4--4---------------------------------|


Chorus

G|----------------------------------------| x4
D|----------------------------------------|
A|------4---------------------------------|
E|4h6-6----6--------------2--2-2----------|
B|------------4--4-4--4-2---------2-4---2-|


-> play Verse again

-> play Prechorus again

-> play Chorus again
[ Tab from: http://www.guitartabs.cc/tabs/p/papa_roach/black_clouds_btab.html ]

Bridge

G|----------------------------------------|
D|----------------------------------------|
A|----------------------------------------|
E|2--2--------------2--2--2--4--4--4--4~--|
B|------2--4--4--2------------------------|


Interlude

G|--------------------------------|--------------------------------|
D|--------------------------------|--------------------------------|
A|--------------------------------|--------------------------------|
E|4h6-4h6-4h6-4h6-4h6-4h6-6-\-2~--|------------2-2-2-2-2-2-2-2-2-2-|
B|--------------------------------|--------------------------------|


Prechorus

G|---------------|----------------------------|
D|---------------|----------------------------|
A|----R-E-S-T----|----------4~----------------|
E|---------------|--------------------2~--1~--|
B|---------------|4~----2~------4~------------|

G|----------------------------------------|
D|----------------------------------------|
A|----------------------------------------|
E|---------1--1--1--2--2--2--4--4--4--4~--|
B|4--4--4---------------------------------|


Chorus

G|----------------------------------------| x4
D|----------------------------------------|
A|------4---------------------------------|
E|4h6-6----6--------------2--2-2----------|
B|------------4--4-4--4-2---------2-4---2-|

G|---------------------------------------|----------------------------------------|
D|---------------------------------------|----------------------------------------|
A|----4---4-4----------------------------|------4---------------------------------|
E|4h6---6-----6----------2--2-2----------|4h6-6----6--------------2--2-2----------|
B|---------------4---4-2---------2-4---2-|------------4--4-4--4-2---------2-4---2-|


-> play Bridge again


Outro

G|----------------|
D|----------------|
A|----------------|
E|6~----6-\-6~----|
B|0~----0-\-------|
Comments