Papa Roach - Binge Chords & Tabs

 

Binge Chords & Tabs

Papa Roach Chords & Tabs

Version: 1 Type: Tab 0 ratings
1 star 2 stars 3 stars 4 stars 5 stars
comments

Binge Tab

   
SONG: Binge
BAND: Papa Roach
ALBUM: Infest
RANSCRIBED BY: Diego Benitez (diegob120@hotmail.com)

	TUNING: drop d (D-A-d-G-B-E)

     INTRO:

     Play this twice

    E|----------------------------------|
    B|----------------------------------| 
    G|------------10-10-10-10----10-10--|
    D|--5-5-5-5-------------------------|   
    A|--5-5-5-5----8--8--8--8-----8--8--|
    D|--5-5-5-5-------------------------|

     Then play this twice

    E|-----------------------------------------|
    B|-----------------------------------------|
    G|------------10-10-10-10-\-8-8-8-8-\-7-7--|
    D|--1-1-1-1--------------------------------|
    A|--1-1-1-1----8--8--8--8-\-6-6-6-6-\-5-5--|
    D|--1-1-1-1--------------------------------|

     VERSE:

     Play this four times

    E|------------------------------|
    B|------------------------------|
    G|-----------------------7---8--|
    D|--5-5-5-5-5-5-5-5-5-----------|
    A|--5-5-5-5-5-5-5-5-5----5---6--|
    D|--5-5-5-5-5-5-5-5-5-----------|

     Play this four times

    E|------------------------------|
    B|------------------------------|
    G|-----------------------7---8--|
    D|--1-1-1-1-1-1-1-1-1-----------|
    A|--1-1-1-1-1-1-1-1-1----5---6--|
    D|--1-1-1-1-1-1-1-1-1-----------|

     CHORUS: (exact rhythm not shown)

     Play this twice

    E|-------------------|
    B|-------------------|
    G|-------------------|
    D|--5-5-5-5-3-3-3-3--|
    A|--5-5-5-5-3-3-3-3--|
    D|--5-5-5-5-3-3-3-3--|

     Then play this twice

    E|-------------------|
    B|-------------------|
    G|-------------------|
    D|--1-1-1-1-3-3-3-3--|
    A|--1-1-1-1-3-3-3-3--|
    D|--1-1-1-1-3-3-3-3--|
[ Tab from: http://www.guitartabs.cc/tabs/p/papa_roach/binge_tab.html ]
     INTERLUDE TYPE RIFF: (comes in at around 2:29)

    E|-----------------------------------|
    B|-----------------------------------|
    G|-----------------------------------|
    D|--5-5-5-5-8-8-8-8-5-5-5-5-8-8-8-8--|
    A|--5-5-5-5-8-8-8-8-5-5-5-5-8-8-8-8--|
    D|--5-5-5-5-8-8-8-8-5-5-5-5-8-8-8-8--|

    E|-----------------------------------|
    B|-----------------------------------|
    G|-----------------------------------|
    D|--1-1-1-1-1-1-1-1-1-1-1-1-1-1-1-1--|
    A|--1-1-1-1-1-1-1-1-1-1-1-1-1-1-1-1--|
    D|--1-1-1-1-1-1-1-1-1-1-1-1-1-1-1-1--|

    E|--------------------------------------|
    B|--------------------------------------|
    G|--------------------------------------|
    D|--0000000000000000--3333333333333333--|
    A|--0000000000000000--3333333333333333--|
    D|--0000000000000000--3333333333333333--|
        

     BRIDGE PART: (comes in about 3:04)


    E|-----------------------------------|
    B|-----------------------------------|
    G|------------------7-7-7-7----------|
    D|--5-5-5-5-8-8-8-8-7-7-7-7-3-3-3-3--|
    A|--5-5-5-5-8-8-8-8-5-5-5-5-3-3-3-3--|
    D|--5-5-5-5-8-8-8-8---------3-3-3-3--|

     OUTRO: (about 3:35)

     Play this three times

    E|------------------------------|
    B|------------------------------|
    G|-----------------------7---8--|
    D|--5-5-5-5-5-5-5-5-5-----------|
    A|--5-5-5-5-5-5-5-5-5----5---6--|
    D|--5-5-5-5-5-5-5-5-5-----------|

     Then play this

    E|--------------------------------------------|
    B|--------------------------------------------|
    G|----------------------10-10-10-10-/-12-\-8--|
    D|--5-5-5-5-5-5-5-5-5-------------------------|
    A|--5-5-5-5-5-5-5-5-5----8--8--8--8-/-10-\-6--|
    D|--5-5-5-5-5-5-5-5-5-------------------------|


Comments