Papa Roach - Binge Chords & Tabs

 

Binge Chords & Tabs

Papa Roach Chords & Tabs

Version: 1 Type: Bass Tab 0 ratings
1 star 2 stars 3 stars 4 stars 5 stars
comments

Binge Bass Tab

Artist: Papa Roach
Song: Binge
Album: Infest
Tabbed by: A.B (purplel50@hotmail.com)
Date: 17/3 2001
Time started: 10:39
Time finished: 12:02

This is tabbed from fresh so please correct any wrong
doings.Probably uses a plectrum.
Drop D tuning.

Intro:

G-------------|-------------|-------------|-------------|
D-------------|-------------|-------------|-------------|
A-------------|-------------|-------------|-------------|
D-5-5-5-5-----|-5-5-5-5-----|-1-1-1-1-----|-1-1-1-1-----|
(break between each bar)
(((Play through twice)))

Verse:
[ Tab from: http://www.guitartabs.cc/tabs/p/papa_roach/binge_btab.html ]
G---------------|-------------|-------------|-------------|
D---------------|-------------|-------------|-------------|
A---------------|-------------|-5-3-6-------|-------------|
D--5-5-5-5-5-5--|--5-5-5------|-------------|-------------|
(Play this 4 times)
Then:
G---------------|-------------|-------------|-------------|
D---------------|-------------|-------------|-------------|
A---------------|-------------|-5-3-6-------|-------------|
D--1-1-1-1-1-1--|--1-1-1------|-------------|-------------|
(Play this 4 times)
(((Play through twice)))

Chorus #1:
G-----------------|-----------------|-----------------|-----------------|
D-----------------|-----------------|-----------------|-----------------|
A-----------------|-----------------|-----------------|-----------------|
D-5-5-5-5-5-5-5-5-|-3-3-3-3-3-3-3-3-|-5-5-5-5-5-5-5-5-|-3-3-3-3-3-3-3-3-|


G-----------------|-----------------|-----------------|-----------------|
D-----------------|-----------------|-----------------|-----------------|
A-6-6-6-6-6-------|-6-6-6-6---------|-8-8-6-8-6-6-8---|-----------------|
D-----------------|-----------------|-----------------|-----------------|

G-----------------|-----------------|-----------------|-----------------|
D----SAME--AS-----|---ABOVE---------|-----------------|-----------------|
A-----------------|-----------------|-6-8-8-8-8-8-8---|-----------------|
D-----------------|-----------------|-----------------|-----------------|

>>>Then Verse again>Then Chorus>Then Intro part again(only once)>Then Chorus#1 again>Then back to verse (top part-once only)
Comments