Papa Roach - Between Angels And Insects Chords & Tabs

 

Between Angels And Insects Chords & Tabs

Papa Roach Chords & Tabs

Version: 7 Type: Tab 0 ratings
1 star 2 stars 3 stars 4 stars 5 stars
comments

Between Angels And Insects Tab

here's the tab...........
[ Tab from: http://www.guitartabs.cc/tabs/p/papa_roach/between_angels_and_insects_tab_ver_7.html ]
Dropped D tuning
intro
E-----------------------------------------------|
B-----------------------------------------------|
G-----------------------------------------------|
D-----------------------------------------------|
A----8---7---10---8---7h8---8---7---10---8---7h8|
D--0---0---0----0---0-----8---8---8----8---8----|
intro continued
E----------------------------------------------------|
B----------------------------------------------------|
G----------------------------------------------------|
D----------------------------------------------------|
A----8---7---10---8---7h8----8----7----10----8----8h7|
D--7---7---7----7---7-----10---10---10----10---10----|
Comments