Papa Roach - Between Angels And Insects Chords & Tabs

 

Between Angels And Insects Chords & Tabs

Papa Roach Chords & Tabs

Version: 15 Type: Tab 0 ratings
1 star 2 stars 3 stars 4 stars 5 stars
comments

Between Angels And Insects Tab

TABBED BY: JAMES ( neverwakeup@msn.com)  email me if i screwed up!
SONG: Between Angels And Insects
ALBUM: Infest
BAND: Papa Roach

ALL the tabs i found on this site for this song were.....well way off target as you
will see when u play this! ENJOY!

INTRO:

|-----------------------------------|
|-----------------------------------|
|-----------------------------------|
|-----------------------------------|
|-----8-----7-----10-----8-----7h8--|
|--0-----0-----0------0-----0-------|

|-----------------------------------|
|-----------------------------------|
|-----------------------------------|
|-----------------------------------|
|-----8-----7-----10-----8-----7h8--|
|--8-----8-----8------8-----8-------|

|-----------------------------------|
|-----------------------------------|
|-----------------------------------|
|-----------------------------------|
|-----8-----7-----10-----8-----7h8--|
|--7-----7-----7------7-----7-------|

|-----------------------------------|
|-----------------------------------|
|-----------------------------------|
|-----------------------------------|
|-----8-----7-----10-----8-----8h7--|
|-10----10----10-----10----10-------|

Rhy.Fig.2
|-------------------------------|
|-------------------------------|
|-----------12--12-12-12-12-12--|
|-0-0-0-0-0-10--10-10-10-10-10--|
|-0-0-0-0-0-10--10-10-10-10-10--|
|-0-0-0-0-0-10--10-10-10-10-10--|

|---------------------------------|
|---------------------------------|
|-----------12--12-12-12-12-12----|
|-0-0-0-0-0-10--10-10-10-10-10----|
|-0-0-0-0-0-10--10-10-10-10-10----|
|-0-0-0-0-0-10--10-10-10-10-10--0-|

|-----------------------------------|
|-----------------------------------|
|--9--9--9--9-9-9-------------------|
|--7--7--7--7-7-7-10-10-10-10-10----|
|--7--7--7--7-7-7-10-10-10-10-10----|
|--7--7--7--7-7-7-10-10-10-10-10--0-|

|-----------------------------------|
|-----------------------------------|
|--9--9--9--9-9-9-------------------|
|--7--7--7--7-7-7-10-10-10-10-10----|
|--7--7--7--7-7-7-10-10-10-10-10----|
|--7--7--7--7-7-7-10-10-10-10-10----|

Rhy.Fig.3
|-----------------------------------|
|-----------------------------------|
|-----------------------------------|
|--0--0--0--0--0-10--10-10-10-10-10-|
|--0--0--0--0--0-10--10-10-10-10-10-|
|--0--0--0--0--0-10--10-10-10-10-10-|

|-----------------------------------|
|-----------------------------------|
|-----------------------------------|
|--0--0--0--0--0-10--10-10-10-10----|
|--0--0--0--0--0-10--10-10-10-10----|
|--0--0--0--0--0-10--10-10-10-10--0-|

|-------------------------------------|
|-------------------------------------|
|--9--9--9--9-9-9-10-10-10-10-10-10---|
|--7--7--7--7-7-7-8--8--8--8--8--8----|
|--7--7--7--7-7-7-8--8--8--8--8--8----|
|--7--7--7--7-7-7-8--8--8--8--8--8--0-|

|---------------------------------------|
|---------------------------------------|
|--5--5--5--5-5-5--3--3--3--3--3--3--3--|
|--3--3--3--3-3-3--1--1--1--1--1--1--1--|
|--3--3--3--3-3-3--1--1--1--1--1--1--1--|
|--3--3--3--3-3-3--1--1--1--1--1--1--1--|

Verse
[ Tab from: http://www.guitartabs.cc/tabs/p/papa_roach/between_angels_and_insects_tab_ver_15.html ]
|-------------------------------------------|
|-------------------------------------------|
|----------------7-----10/12-12-12---10-----|
|----------------x-----x--x--x--x----x------|
|----------------5-----8-/10-10-10---8------|
|--0--0--0--0--0-----0-------------------0--|
  pm............|

|-------------------------------------------|
|-------------------------------------------|
|----------------5-----10/12-12-12---10-----|
|----------------3-----x--x--x--x----x------|
|----------------3-----8-/10-10-10---8------|
|--3--3--3--3--3-3---0-------------------0--|
  pm............|

|-------------------------------------------|
|-------------------------------------------|
|----------------9-----10/12-12-12---10-----|
|----------------7-----x--x--x--x----x------|
|----------------7-----8-/10-10-10---8------|
|--7--7--7--7--7-7---0-------------------0--|
  pm............|

|------------------------------------------------|
|------------------------------------------------|
|----------------10------------------------------|
|----------------8-------------------------------|
|----------------8-------------------------------|
|--8--8--8--8--8-8-----0-8h10-10-8h10-10-8h10-10-|
  pm............|

Play FEW! times
B4 chorus starts, FIN with this:

|-------------------------------------------|
|-------------------------------------------|
|----------------10----10/12-12-12----------|
|----------------8-----x--x--x--x--------10-|
|----------------8-----8-/10-10-10-------10-|
|--8--8--8--8--8-8---0-------------------10-|
  pm............|

Play the Rhy.Fig.2

Slide between the 2 times

|-----------|
|-----------|
|-----------|
|-------0---|
|-------0---|
|-12\\---0---|



|---------------------------------------|
|---------------------------------------|
|--9--9--9---9--9-----------------------|
|--7--7--7---7--7--10--10----10--10-10--|
|--7--7--7---7--7--10--10----10--10-10--|
|--7--7--7---7--7--10--10----10--10-10--|
 
 Money .... Possession..... Obsession..  ___...
|-------|---------|--------|------|
|-------|---------|--------|------|
|--10---|--10-----|--------|------|
|--x----|--x------|--7-----|--10--|
|--8----|--8------|--8-----|--8---|
|--0----|--8------|--7-----|--10--|

Bridge : Play the Intro
After play the Chorus

and FIN with:

|--10-10-10-10-10-10-10-10-10-13-13-13-13-13-13-13-|
|--x--x--x--x--x--x--x--x--x--x--x--x--x--x--x--x--|
|--7--7--7--7--7--7--7--7--7--10-10-10-10-10-10-10-|
|--------------------------------------------------|
|--------------------------------------------------|
|--------------------------------------------------|

|--10-10-10-10-10-10-10-10-10-13-13-13-13-13-13-13-|
|--x--x--x--x--x--x--x--x--x--x--x--x--x--x--x--x--|
|--7--7--7--7--7--7--7--7--7--10-10-10-10-10-10-10-|
|--------------------------------------------------|
|--------------------------------------------------|
|--------------------------------------------------|

|--13-13-10-10-10-10-10-10-10-13-13-13-13-13-13-13-|
|--x--x--x--x--x--x--x--x--x--x--x--x--x--x--x--x--|
|--10-10-7--7--7--7--7--7--7--10-10-10-10-10-10-10-|
|--------------------------------------------------|
|--------------------------------------------------|
|--------------------------------------------------|

|--12-12-12-12-12-12-12-12-12-8--8--8--8--8--8--8--|--10--|
|--x--x--x--x--x--x--x--x--x--x--x--x--x--x--x--x--|--x---|
|--9--9--9--9--9--9--9--9--9--5--5--5--5--5--5--5--|--7---|
|--------------------------------------------------|------|
|--------------------------------------------------|------|
|--------------------------------------------------|------|
Comments