Papa Roach - Between Angels And Insects Chords & Tabs

 

Between Angels And Insects Chords & Tabs

Papa Roach Chords & Tabs

Version: 5 Type: Bass Tab 0 ratings
1 star 2 stars 3 stars 4 stars 5 stars
comments

Between Angels And Insects Bass Tab

   
Artist: Papa Roach
Song  : Between Angels and Insects 
Album : Infest

Tab from: Lowend  Bassk8er99@yahoo.com

added from me(112178) *g*
ladada@gmx.de

Comments: This is damned right!!!!!

Strings: B ,E ,A ,D ,G 
Symbols explanations:
  H: hammer on  P: pull off
  \: slide up   /: slide down
====================
   Intro
G ----------------------------------------------------------
D ----------------------------------------------------------
A ----------------------------------------------------------
E ----------------------------------------------------------
B --5-5-5-5-5-5-3-3-3-3-3-3-3-3-5-5-5-5-5-5-3-3-3-3-3-3-3-3-

G -------------------------------------------------------
D -------------------------------------------------------
A -0-0-0-0-0-0h-3-3-3-3-3-3-3-0-0-0-0-0-0h-3-3-3-3-3-3-3-
E -------------------------------------------------------
B -------------------------------------------------------

G ----------------------------------------------------------
D ----------------------------------------------------------
A ----------------------------------------------------------
E ----------------------------------------------------------
B --5-5-5-5-5-5-3-3-3-3-3-3-3-3-5-5-5-5-5-5-3-3-3-3-3-3-3-3-

G ---------------------------------------------------------------------
D ---------------------------------------------------------------------
A --0--0--0--0--0--0h-1--1--1--1--1--1--1------------------------------
E -----------------------------------------3--3--3--3--3--1--1--1--1--1
B ---------------------------------------------------------------------

Chorus
G ----------------------------------------------------------
D ----------------------------------------------------------
A ----------------------------------------------------------
E ----------------------------------------------------------
B --5-5-5-5-5-5-3-3-3-3-3-3-3-3-5-5-5-5-5-5-3-3-3-3-3-3-3-3-
[ Tab from: http://www.guitartabs.cc/tabs/p/papa_roach/between_angels_and_insects_btab_ver_5.html ]
Chorus cont. . .
G -------------------------------------------------------------------------------
D -------------------------------------------------------------------------------
A --0--0--0--0--0--0h-3--3--3--3--3--3--3--0--0--0--0--0--0h-3--3--3--3--3--3--3-
E -------------------------------------------------------------------------------
B -------------------------------------------------------------------------------

 Verse
G -----------------------------------------------------------------------------
D -----------------------------------------------------------------------------
A -----------------------------------------------------------------------------
E -----------------------1-1-1-1-1-1--3-2-1-3-5-5-5-5-5-5--5-4-3-5-6-6-6-6-6-6-
B --3-3-3-3-3-3-5--4-3-5-------------------------------------------------------

G ---------------------
D ---------------------
A ----1h-3--1h-3--1h-3-
E ---------------------
B ---------------------

  Little thing before bass solo
G ----------------
D ----------------
A -5-------------3
E -----6----5-----
B ----------------

  Bass Solo
G --------------7-10--9--5H-7--------------5--3--0--3----------------------------
D --------7H-9-----------------8--8--------------------------------7--7----------
A --5--5-----------------------------5H-7--------------0--0--7--7----------------
E -------------------------------------------------------------------------------
B -------------------------------------------------------------------------------
                                                                                 
G -------------------------------------------------------------------------------
D --7----------------------------------------------------------------------------
A -----7H10-----------------0--3--5--5--1--1--0--0--3--3--3--3--3--0-------------
E -----------8--8--8--8--8-------------------------------------------------------
B -------------------------------------------------------------------------------
                                                                                 
G -------------------------------------------------------------------------------
D --------------------------------------3--x-------------------------------------
A --0--3--4--5--5--5--5--3H-5--1--1--1--------3H-5--0--0--0--0--0--0-------------
E --------------------------------------------------------------------3H-5-------
B -------------------------------------------------------------------------------

G ------------------
D ------------------
A --3--3--3--0H-3--5
E ------------------
B ------------------

Outro
G ----10----9-----12----10----9h-10-
D --0----0-----0------0-----0-------
A ----------------------------------
E ----------------------------------
B ----------------------------------
Comments