Papa Roach - Between Angels And Insects Chords & Tabs

 

Between Angels And Insects Chords & Tabs

Papa Roach Chords & Tabs

Version: 4 Type: Bass Tab 0 ratings
1 star 2 stars 3 stars 4 stars 5 stars
comments

Between Angels And Insects Bass Tab

tab: Song-Between Angels and Insects
Artist-Papa Roach
Tuning-DADG
Tab By: Keith M.D.


Bass starts about 25 seconds in when the drums kick in

2x
G-------------------------
D-------------------------
A-------------------------
D---0-0-0-0-0-h10-10-10-10

2x
G-------------------------
D------------------------- 
A-------------------------
D---7-7-7-7-7-h10-10-10-10

2x
G-------------------------
D-------------------------
A-------------------------
D---0-0-0-0-0-h10-10-10-10

G---------------------------------------
D---------------------------------------
A---------------------------------------
D---7-7-7-7-7-h8-8-8-8-3-3-3-3-3-1-1-1-1

Then it goes to the verse
Verse: 3x
G----------------------------------------
D----------------------------------------
A---------------0-0-0-1-1-1-1-h3-3-1-h3-3
D---0-0-0-3-3-3--------------------------
[ Tab from: http://www.guitartabs.cc/tabs/p/papa_roach/between_angels_and_insects_btab_ver_4.html ]
Then the chorus
Chorus:2x
2x                            2x
G-------------------------    G-------------------------
D-------------------------    D-------------------------
A-------------------------    A-------------------------
D---0-0-0-0-0-h10-10-10-10    D---7-7-7-7-7-h10-10-10-10

Then to the Verse Again: 2x

Then the chorus again: 2z

Then after that there is a different part when you just let some notes ring
Here are the notes:
G-------------------------
D-------------------------
A----------1------0------3
D---0---------------------

Here's the bass solo, you gotta figure out the rythym yourself though:
G---------------------------------------------------------
D-----------5-3-2-3---------5-3-2-3-----------5-3-2-3------3---3-3
A---0-0-0-3---------1-1-1-3-----------0-0-0-3---------3-3-3---3-3
D------------------------------------------------------

Then You go back to the notes above the solo but hit them a bunch of times instead of just once: 2x

Then it goes back to the chorus:3x

Then at the end of the song there is a little bass part that goes like this:
G----------------
D-----3-2-5-3-2-3
A----------------
D---0------------

Play that a couple of times and the song is over.


Thanks to Brian Connolly for the original work
Comments