Papa Roach - Between Angels And Insects Chords & Tabs

 

Between Angels And Insects Chords & Tabs

Papa Roach Chords & Tabs

Version: 3 Type: Bass Tab 0 ratings
1 star 2 stars 3 stars 4 stars 5 stars
comments

Between Angels And Insects Bass Tab

Rodrigo diaz
between angel and insects
hey, thnaks for watch my tab, i think that this song is right because i got a band in mexico that called persona an always i played of this way
if you got some doubt or any coment you could  send me an email in orlandoalive@hotmail.com. i hope that you enjoy it.

first chorus after the intro
g--------------------------------------
d--------------------------------------
a--------------------------------------
d-0-0-0-0--7-h-10-10-10-10-10-10-10-10-

g--------------------------------------
d--------------------------------------
a--------------------------------------
d-0-0-0-0--7-h-10-10-10-10-10-10-10-10-

2times
g--------------------------------------
d--------------------------------------
a--------------------------------------
d-7-7-7-7-10-10-10-10-10-10-10-10------

g--------------------------------------
d--------------------------------------
a--------------------------------------
d-0-0-0-0--7-h-10-10-10-10-10-10-10-10-

g--------------------------------------
d--------------------------------------
a--------------------------------------
d-0-0-0-0--7-h-10-10-10-10-10-10-10-10-

g--------------------------------------
d--------------------------------------
a--------------------------------------
d-7-7-7-7-8-8-8-8-8-8-8-8--3-3-3-3-1-1-1-1-1-1-1-1--
[ Tab from: http://www.guitartabs.cc/tabs/p/papa_roach/between_angels_and_insects_btab_ver_3.html ]
VERSE 
g--------------------------------------
d--------------------------------------
a-5-5-5-5-5-------------------------------------
d-------------3-3-3-3-3--7-7-7-7-7-8-8-8-8-8-6h8-6h8-6h8-6h8-

CHORUS
g--------------------------------------
d--------------------------------------
a--------------------------------------
d-0-0-0-0--7-h-10-10-10-10-10-10-10-10-

g--------------------------------------
d--------------------------------------
a--------------------------------------
d-0-0-0-0--7-h-10-10-10-10-10-10-10-10-

2times
g--------------------------------------
d--------------------------------------
a--------------------------------------
d-7-7-7-7-10-10-10-10-10-10-10-10------ 


INTERLUDE ''MONEY,OBSETION ETC´´
g------------------------------------------- 
d--------------------------------------------
a-8-------------------------------------------
d------8-----7-----10-------------------------

BASS SOLO
g--------------12-10-9h10h9------------------------------------
d-0-10h12-(10)---------------8---8h108--7h8h7--0-7h8-7-7-10-10--
a--------------------------------------------------------------
d--------------------------------------------------------------

now you have to play the interlude again before the cool scream
and then you play the chorus

OUTRO
g---10-9-12-10-9h10--------------------------------------
d-0------------------------------------------------------
a---------------------------------------------------------
d---------------------------------------------------------
Comments