Papa Roach - Be Free Chords & Tabs

 

Be Free Chords & Tabs

Papa Roach Chords & Tabs

Version: 2 Type: Tab 0 ratings
1 star 2 stars 3 stars 4 stars 5 stars
comments

Be Free Tab

   
-------------------------------------------------------------------------------
			     Be Free - Papa Roach
-------------------------------------------------------------------------------
Tabbed by: Nic
Email: AIM-Munky8461

Tuning: I have it in C..but you can play it in D...just rais everything 2 frets

Verse
D|-----------------------------------------------------------------------------|
A|-----------------------------------------------------------------------------|
F|-----------------------------------------------------------------------------|
C|-2-2-----5-5--7-7---10-10--9-9-----------------------------------------------|
G|-2-2-----5-5--7-7---10-10--9-9-------~9~-------------------------------------|
C|-2-2-----5-5--7-7---10-10--9-9-----------------------------------------------|

The bend on that middle 9 note is only on the second time through both versees.
Next is the Pre-Chorus

D-----------------------------------------------------------------------------|
A-----------------------------------------------------------------------------|
F-----------------------------------------------------------------------------|
C--2-2---xxx----5-5---7-7------10\----10-10--9-9------------------------------|
G--2-2---xxx----5-5---7-7------10\----10-10--9-9------------------------------|
C--2-2---xxx----5-5---7-7------10\----10-10--9-9------------------------------|
^ play around with some harmonics there

Chorus...No Rythym here just the chords...
[ Tab from: http://www.guitartabs.cc/tabs/p/papa_roach/be_free_tab_ver_2.html ]
D|-------------------------------------------------------------------------------|
A|-------------------------------------------------------------------------------|
F|-------------------------------------------------------------------------------|
C|-14--10---12----14---17---12----10---9-----------------------------------------|
G|-14--10---12----14---17---12----10---9-----------------------------------------|
C|-14--10---12----14---17---12----10---9-----------------------------------------|


Bridge (Again no rhytym...rather simple anyways)
D-----------------------------------------------------------------------------|
A-----------------------------------------------------------------------------|
F-----------------------------------------------------------------------------|
C-14-10--9--------------------------------------------------------------------|
G-14-10--9--------------------------------------------------------------------|
C-14-10--9--------------------------------------------------------------------|

Then Slide your 6th string and go into the chorus again...The end goes like this...
no rhytym added...easy still
D-----------------------------------------------------------------------------|
A-----------------------------------------------------------------------------|
F-----------------------------------------------------------------------------|
C-14-10--12--14--10---9-------------------------------------------------------|
G-14-10--12--14--10---9-------------------------------------------------------|
C-14-10--12--14--10---9-------------------------------------------------------|
         ^ Hold the 12


| /  slide up
| \  slide down
| h  hammer-on
| p  pull-off
| ~  vibrato
| +  harmonic
| x  Mute note
===============================================================================
Comments