Papa Roach - Be Free Chords & Tabs

 

Be Free Chords & Tabs

Papa Roach Chords & Tabs

Version: 1 Type: Tab 1 rating
1 star 2 stars 3 stars 4 stars 5 stars
comments

Be Free Tab

Drop D Tuning DADGBE

Listen to song for Timing.

Intro/Verse

|------------------------------------------|
|------------------------------------------|
|------------------------------------------|
|--0----3---5--------8----8--7-------------|
|--0----3---5--------8----8--7-------------|
|--0----3---5--------8----8--7-------------| x4


Chorus Guitar 1

|------------------------------------------------------|
|------------------------------------------------------|
|------------------------------------------------------|
|--12----------8-----10--------12-------15----14-------|
|--12----------8-----10--------12-------15----14-------|
|--12----------8-----10--------12-------15----14-------|

[ Tab from: http://www.guitartabs.cc/tabs/p/papa_roach/be_free_tab.html ]
Chorus Guitar 2
|--10-10-10-10--8-8------------10-10-10-13-12----------|
|--------------------8-8----------------------12-------|
|------------------------------------------------------|
|------------------------------------------------------|
|------------------------------------------------------|
|------------------------------------------------------|


Other Riff/Outro
|--------------------------------------------------------|
|--------------------------------------------------------|
|--------------------------------------------------------|
|-12-12--8-8--10-----12-12--8-8--7-----------------------|
|-12-12--8-8--10-----12-12--8-8--7-----------------------|
|-12-12--8-8--10-----12-12--8-8--7-----------------------|

Feel Free to Email: jak_d_lad@hotmail.com
Comments