Papa Roach - Be Free Chords & Tabs

 

Be Free Chords & Tabs

Papa Roach Chords & Tabs

Version: 2 Type: Bass Tab

Be Free Bass Tab

   
Artist: Papa Roach
Album: Getting Away With Murder
Song: Be Free
Tabbed by: Cody Fuller , aka rockerc
Tuning: C G C F
In the key of A

Dave plays drum fill at beginning


Verse 1
F|---------------------------------|
C|---------------------------------|
G|-7-7----------------3-3-----2-2--| x2
C|-------5-5--7-7------------------|

F|---------------------------------------|
C|---------------------------------------|
G|-7-7----------------3-3-----2-2--------|
C|-------5-5--7-7--------------------0-5-|

F|--------------------------------|
C|--------------------------------|
G|-7-7----------------3-3-----2-2-|
C|-------5-5--7-7-----------------|

F|----------------------------------------------------|
C|----------------------------------------------------|
G|-7-7----------------3-3-3-3-3-3-3-3-2-2-2-2-2-2-2-2-|
C|-------5-5--7-7-------------------------------------|

Chorus 1

F|-----------------------------------------------------------------|
C|-----------------------------------------------------------------|
G|--5-5-5-5-5-3-3--2-2-2-2-2-2-2-2--5-5-5-5-5-7-7--3-3-3-3-3-3-3-3-|
C|-----------------------------------------------------------------|

--------------------------------------------------------------------|
--------------------------------------------------------------------|
-5-5-5-5-5-3-3--2-2-2-2-2-2-2-2--3-3-3-3-3-3-3-3-2-2-2-2-2-2-2-2----|
--------------------------------------------------------------------|


Verse 2

F|---------------------------------------|
C|---------------------------------------|
G|-7-7----------------3-3-----2-2--------|
C|-------5-5--7-7--------------------0-5-|

F|--------------------------------|
C|--------------------------------|
G|-7-7----------------3-3-----2-2-|
C|-------5-5--7-7-----------------|

F|---------------------------------------|
C|---------------------------------------|
G|-7-7----------------3-3-----2-2--------|
C|-------5-5--7-7--------------------0-5-|
[ Tab from: http://www.guitartabs.cc/tabs/p/papa_roach/be_free_btab_ver_2.html ]
F|--------------------------------|
C|--------------------------------|
G|-7-7----------------3-3-----2-2-|
C|-------5-5--7-7-----------------|

F|----------------------------------------------------|
C|----------------------------------------------------|
G|-7-7----------------3-3-3-3-3-3-3-3-2-2-2-2-2-2-2-2-|
C|-------5-5--7-7-------------------------------------|

Chorus 2

F|-----------------------------------------------------------------|
C|-----------------------------------------------------------------|
G|--5-5-5-5-5-3-3--2-2-2-2-2-2-2-2--5-5-5-5-5-7-7--3-3-3-3-3-3-3-3-|
C|-----------------------------------------------------------------|
                                                                       x2
--------------------------------------------------------------------|
--------------------------------------------------------------------|
-5-5-5-5-5-3-3--2-2-2-2-2-2-2-2--3-3-3-3-3-3-3-3-2-2-2-2-2-2-2-2----|
--------------------------------------------------------------------|

Bridge

F|--------------------------------------|
C|--------------------------------------|
G|-5----3-----2--------5----3--------2--| x2
C|--------------------------------------|

Drum fill (no bass)

Chorus 3
F|-----------------------------------------------------------------|
C|-----------------------------------------------------------------|
G|--5-5-5-5-5-3-3--2-2-2-2-2-2-2-2--5-5-5-5-5-7-7--3-3-3-3-3-3-3-3-|
C|-----------------------------------------------------------------|
                                                                        x2
--------------------------------------------------------------------|
--------------------------------------------------------------------|
-5-5-5-5-5-3-3--2-2-2-2-2-2-2-2--3-3-3-3-3-3-3-3-2-2-2-2-2-2-2-2----|
--------------------------------------------------------------------|

Ending:
F|--------------------------------------|
C|--------------------------------------|
G|-5----3-----2--------5----3--------2--| x2
C|--------------------------------------|