Papa Roach - 829 Chords & Tabs

 

829 Chords & Tabs

Papa Roach Chords & Tabs

Version: 1 Type: Bass Tab 0 ratings
1 star 2 stars 3 stars 4 stars 5 stars
comments

829 Bass Tab

Band- Papa Roach
Song- 829
Tuning- Standard

 Intro/Riff
g----------------------------------|
d----------------------------------|
a---111-1--11111--1----------------|
e------0-0-------0--0--------------|

[ Tab from: http://www.guitartabs.cc/tabs/p/papa_roach/829_btab.html ]
Part 1/Chorus
g----------------------------------|
d----------------------------------|
a----------------------------------|
e-532*-33223323--------------------|


Verse
g----------------------------------|
d----------------------------------|
a------------------77--------------|
e---666555666555666----------------|


End
g-----------------------------------|
d-----------------------------------|
a--7*------------7------------------|
e----53333534-----33354333----------|
Comments