Paolo Santos - Your Body Is A Wonderland Chords & Tabs

 

Your Body Is A Wonderland Chords & Tabs

Paolo Santos Chords & Tabs

Version: 1 Type: Chords 0 ratings
1 star 2 stars 3 stars 4 stars 5 stars
comments

Your Body Is A Wonderland Chords

   
YOUR BODY IS A WONDERLAND
Paolo Santos
totoMicsClan

Standard Tuning	(EADGBE)
Capo on 3rd fret

Intro:

E--------------------------------
B---3-3-----3-3-----3-3-----3-3--
G---2-2-----2-2-----2-2-----2-2--play 2x
D-0---0--------------------------
A---------0---0-----------0---0--
E-----------------3---3----------

Verse:
"we got.."

E--------------------------------
B---3-3-----3-3-----3-3-----3-3--
G---2-2-----2-2-----2-2-----2-2--
D-0---0--------------------------
A---------0---0-----------0---0--
E-----------------3---3----------

Pre-chorus:
"you want love.."
[ Tab from: http://www.guitartabs.cc/tabs/p/paolo_santos/your_body_is_a_wonderland_crd.html ]
E----2-0-----2-0-5--
B----3-3-----3-3-3--
G-------------------play 3x
D-------------------
A----------0---0----
E--3---3------------

"this is bound to be.."

E--------------------
B-0---2---3---5-----------
G-0---2---4---6----------
D-2---4---5---7----------
A-0---2---3---5----------
E-0---2---3---5----------

Chorus:
"your body is a wonderland.."

E---2-2-----2-2-----2-2-----2-2--
B---3-3-----3-3-----3-3-----3-3--
G---2-2-----2-2-----2-2-----2-2--play 4x
D-0---0--------------------------
A---------0---0-----------0---0--
E-----------------3---3----------

Bridge:
"damn baby.."

E---------
B--3----4-
G--4----5-play 3x
D--4------
A--2----6-
E---------

Adlib:

E---
B-2-
G-3-continuous
D-0-
A---
E---

Comments