Paolo Santos - Waiting In Vain Chords & Tabs

 

Waiting In Vain Chords & Tabs

Paolo Santos Chords & Tabs

Version: 1 Type: Tab 0 ratings
1 star 2 stars 3 stars 4 stars 5 stars
comments

Waiting In Vain Tab

Tabbed by: GLENDELL JUEGO
Email: www.sixstringsounds@hotmail.com

We interpret this song on our SPEECH CLASS during the 1st sem. This song reminds me of
Madel de Guzman my partner, we got 91 on this, but i'm sure this would be 100% accurate
this is it players!! enjoy!! ps. IF YOU WANT TO ADD THIS LADY ON YOUR FRIENDSTER ACCOUNT, THEN DO IT!

Tuning: STANDARD TUNING
INTRO AND 1ST VERSE:
[ Tab from: http://www.guitartabs.cc/tabs/p/paolo_santos/waiting_in_vain_tab.html ]
e|---------------0---------0---0------------|
B|---------1---1---------1---1--------------|
G|-------0----0--------2--------------------|
D|-----2-------------3----------------------|
A|---3--------------------------------------|
E|------------------------------------------|
  CHORUS:
e|--0-0---1-1-------------1--0--1--3---------------------|
B|--1-1---1-1-------------1--0--3--3---------------------|
G|--0-0---2-2---3X THEN---2--0--2--0---THEN INTRO CHORDS-|
D|--2-2---3-3-------------3--2--0--0---------------------|
A|--3-3-------------------3--2-----X---------------------|
E|------------------------1--0-----3---------------------|
    2ND VERSE:
e|--0-0--1-1-----------------------------------------|
B|--1-1--1-1-----------------------------------------|
G|--0-0--2-2----JUST STRUM UNTIL THE 2ND VERSE ENDS--|
D|--2-2--3-3-----------------------------------------|
A|--3-3----------------------------------------------|
E|---------------------------------------------------|

THATS ALL BUDDY!!
ENJOY! GODBLESS!!
ALWAYS PLAY WITH YOUR HEART!
SUGGESTIONS/COMMENTS??!!
Comments