Paolo Santos - Princess Chords & Tabs

 

Princess Chords & Tabs

Paolo Santos Chords & Tabs

Version: 2 Type: Chords 0 ratings
1 star 2 stars 3 stars 4 stars 5 stars
comments

Princess Chords

   
PAOLO SANTOS
PRINCESS
by: jomar B.


this is the perfect song for the broken hearted...
(this used to be my anthem... hehe)


don't expect this song 2b perfect.. coz im only 16.. from cavite, philippines
comments&suggestions are always welcome... mail me @ >> ppllggzz@yahoo.com (add me sa friendster!) hehe

INTRO:

|--------0-------0-------------0--------------|
|--2---------0-----0-----2---------0----------|
|-----0---------------------0-----------------|(2x)
|---------------------------------------------|
|--2---------2-----------2---------2----------|
|---------------------------------------------|

|--------1--------1--------------1------------|
|--3---------1-------1----3----------1--------|
|-----1-----------------------1---------------|
|---------------------------------------------|
|--2---------2------------2----------2--------|
|---------------------------------------------|

|--------0-------0-------------0--------------|
|--2---------0-----0-----2---------0----------|
|-----0---------------------0-----------------|
|---------------------------------------------|
|--2---------2-----------2---------2----------|
|---------------------------------------------|
(too long for an intro... dontcha think? :D)

Verse:
[ Tab from: http://www.guitartabs.cc/tabs/p/paolo_santos/princess_crd_ver_2.html ]
E		     Bm	
Walls of my castle speak
      A			       C
They tell me that you're not here
E		      Bm
Heart of my kingdom weeps
A			C
Knowing you're nowhere near

PRE-CHORUS1:
	G
Give me one more chance
   Em
To be with you
    A			     C
to prove my love is forever true
	    G
But you're miles away..
   Em		A		     G
so far away.. hoping that you could stay

CHORUS
     E           
My princess has left me..
Bm		    A    	C
I am so empty.. im all alone
     E
My princess has left me
Bm	 	  A           C
I have nobody to call my own..

Verse2: 
(do verse1 chords)

Sitting in my own room
Humming a lonely tune
staring up at that moon
wondring if you'd be home soon

PRE-CHORUS2:
(do prechorus1 chords)
Have i done you wrong? 
that you went away
would do anything to make you stay
thinking of you.. day and night
wanting to make things right

(chorus)

I KNOW IT'S NOT 100% CORRECT.. SO FEEL FREE TO MAIL ME FOR CORRECTIONS.. d:-)

basta kung feel nyo ako itext.. e2 number ko.. +639198368415 pasaload muna bago txt.. hehe :D

jomar b. po.. batang pilipino... dugong pilipino.. iboto nyo ako.... :D
Comments