Paolo Santos - Officially Missing You Chords & Tabs

 

Officially Missing You Chords & Tabs

Paolo Santos Chords & Tabs

Version: 3 Type: Tab 0 ratings
1 star 2 stars 3 stars 4 stars 5 stars
comments

Officially Missing You Tab

Officially Missing You
Paolo Santos Feat. Nina
tabbed by: Patrick Dulay
           H4-St. Therese

Legend:

* = Tap
~ = Vibrato
()= Silent Strum

Intro:

1|----*------------*------------*---------0*0---------|
2|----*----(3)-----*----(2)----3*3-(3)----0*0-(0)-----|
3|---4*-4~-(4)----3*-3~-(3)----0*0-(0)----0*0-(0)-----|
4|---5*-5~-(5)----4*-4~-(4)-----*--(0)-----*--(0)-----|
5|-5--*----(5)--4--*----(4)--2--*--(2)2---*--(2)-----|
6|-3--*---------2--*---------3--*-------3--*----------|
[ Tab from: http://www.guitartabs.cc/tabs/p/paolo_santos/officially_missing_you_tab_ver_3.html ]
1|----*--(3)---2*2h3--------*-------------------------|
2|---3*3-(3)---3*3---(3)---3*3-(3)--------------------|
3|---0*0(0)---2*2---(2)---0*0-(0)--------------------|
4|-2--*--(2)-0--*----(0)----*--(0)--5-5---------------|
5|-3--*------0--*--------2--*--(2)--5-5---------------|
6|----*------0--*--------3--*-------3-3---------------|

That's 90% right. But I'm sure with that. but if you wish to have a comment. just keep 
I dont want to hear it. hehehe joke. Just E-mail me @ Patrick_010709@yahoo.com if you 
to say something.

Before i go i would like to greet all SMA tabbers & guitarist!!! MABUHAY ANG MGA 
SA Seynt Meris Akademi nang pasay HEHE. mga marian band good luck.

:+:01:+:Patrick_010709:+:01:+:
Comments