Paolo Santos - Love Song For No One Chords & Tabs

 

Love Song For No One Chords & Tabs

Paolo Santos Chords & Tabs

Version: 1 Type: Tab 0 ratings
1 star 2 stars 3 stars 4 stars 5 stars
comments

Love Song For No One Tab

LOVE SONG FOR NO ONE
Paolo Santos

totoMicsClan
bro wla man ko kahibalo ani na kanta
dli nako n pwd itugtog

Standard Tuning	(EADGBE)
Capo on 2nd fret

Intro:

E--3---3---3---0--
B--3---0---1---32--
G--0---0---0---0--play 2x
D--0---2---0---0--
A--0---2---2---22--
E--3---3---0--------

Verse:
"staying home alone.."

E--3---3---3---88--
B--3---0---1---65--
G--0---0---0---0--play 2x
D--0---2---3---77--
A--0---2---0---0--
E--3---3---1---88--

Chorus:
"i'm tired of being alone.."

E--3---7---0---0--
B--3---8---8---3--
G--0---7---9---0--
D--0---7---0---0--
A--0---9---7---3--
E--3---7---0------

Adlib:
"get here.."

E--3---3---3---0--
B--3---0---1---2--
G--0---0---0---0--hold
D--0---2---0---0--
A--0---2---2---2--
E--3---3---0------

Refrain:
"i could have met you in a sandbox.."

E-0---0---0--
B-1---1---1--
G-0---0---0--
D-2---0---2--
A-0---2---3--
E------------
[ Tab from: http://www.guitartabs.cc/tabs/p/paolo_santos/love_song_for_no_one_tab.html ]
"i could have passed you.."

E--0---0---0------------
B--1---1---3------------
G--0---0---0------------
D--2---0---2------------
A--0---2---2------------
E-----------------------

"could i have missed.."

E-0---0---0-------------
B-1---1---1-------------
G-0---0---0-------------
D-2---0---2-------------
A-0---2---3-------------
E-----------------------

"and watch you.."

E--0---0---3--|--3-
B--1---1---1--|--1-
G--0---0---0--|--0-continuous
D--2---0---3--|--3-
A--3---2---0--|--0-
E----------1--|--1-

Adlib: same as intro

Coda:
"you'll be so good.."

E--3---7---0---0-
B--3---8---8---33-
G--0---7---9---0-play 2x
D--0---7---0---2-
A--0---9---7---33-
E--3---7---0-------

Outro:

E--3-23--23--23--323--
B--3-33--33--33--333--
G--0-------------000--play 4x
D--0-------------000--
A--0-------------000--
E--3-------------333--

End at 

E-3--
B-3--
G-0--
D-0--
A-0--
E-3--

=====¤w&_17=====
Comments