Paolo Santos - Come On Home Chords & Tabs

 

Come On Home Chords & Tabs

Paolo Santos Chords & Tabs

Version: 1 Type: Tab 0 ratings
1 star 2 stars 3 stars 4 stars 5 stars
comments

Come On Home Tab

_______________________________________________________________________
***********************************************************************
Title: Come On Home Tab
By: Paolo Santos 
Tuning: Standard
Transcribed by: Lou L. Sarmiento (musikero_24@yahoo.com)
***********************************************************************

	Eto po 'yong complete tab ng song,ginawa ko to alas tres ng hapon 09/26/04,
natapos mga alas singko kinse ng madaling araw 09/27/04. 'Di po 'to 100% correct pero
magkatunog rin naman kaya okey lang isa pa kumpleto di tulad ng karamihang gumagawa ng
tab na puro kulang (johnsantos_17@yahoo.com).

Note: Fifteen years old pa lang po ako & Fourth year high school sa Luciano Millan
National High School, Asingan, Pangansinan. I dedicate this song to Cher Jensen Evan of
Lyceum, Dagupan, Pangasinan. Payo ko lang sa mga amateur tab reader tulad ko, kahit wag
nyo na ring sundin lahat ng laman ng tab lalo na kung di 100% accurate, gawin nyo nalang
itong basehan at gawa na kayo ng sariling version ng tab.

Hi to Guillermo, Vitoriano, Rodrigo, and Auroro of Bingo Boys! Also to Jessie and Tomy!

Intro:

E|-------------------------|----------------|
B|---0-----0-1-3-0---------|-0-----0-1-3-0--|
G|------0-0--------0-0-0h2-|----0-0------0--|
D|-----2-2--------0-0------|---2-2------0---|
A|---3---------------------|-3--------------|
e|---------------3---------|----------------|

Verse I:
  
  Baby come home....door.......stairs...more              
E|----------------------------------------------------|
B|----------0---------------------0----------------0--|
G|-------0------------0-2--------0--------0-0-0h2-2---|
D|------2-2----------0-0--------2--------0-0-----0----|
A|-----3-----------------------3----------------------|
e|------------------3-------------------3-------------|

     Every... day........you.......cold......do          
E|------------------------------------------------3---|
B|------------------------------------1--------1------|
G|-----0--------0----------0---------0--------2-2-----|
D|----2--------0--0-------0-0-------2--------0--------|
A|---3--------2--------------------0------------------|
e|-----------------------3----------------------------|







Pre-chorus I:

    Its....now...gone..I.....behav..self....long
E|--------------------------------------------------|
B|-------0-----0---1------0-----0------0------1-----|
G|------0----0----2-2----0--0--0--0---0--0---2-2----|
D|-----0----2-2--0---0--0--0--0--0---2--2---0---0---|
A|---------3------------------------3---------------|
e|---3-----------------3-----3----------------------|

     I......drink..watch..tv......own.............
E|--------------------------------------3-------3------|
B|------0------0------0------0-------1----1----1--1----|
G|-----0--0---0--0---0--0---0--0----0--0---0--2--2-----|
D|----0--0---0--0---0--0---0--0----2---------0---------|
A|--------------------------------0--------------------|
e|---3------2------1------0----------------------------|


Chorus I:

Come home............   Come home.....yeahhh......  come
E|----------------------0--|-------------------0---|
B|--------3-------0----1-1-|------3-3----0----1-1--|
G|------0--0-----0-0--2----|----0--0----0-0--2-----|
D|-----0-0--0---2----0-----|---0-0-----2----0------|
A|----2--------3-----------|--2-------3------------|
e|---3---------------------|-3---------------------|

  on home.................baby....home
E|--------------------------------------3-------3------|
B|------3------3------3------3-------1----1------------|
G|-----0--0---0--0---0--0---0--0----0--0---0--2--------|
D|----0--0---0--0---0--0---0--0----2---------0---------|
A|--------------------------------0--------------------|
e|---3------2------1------0----------------------------|

Verse II:

       keepin'......time.......day......sunhine...
E|-------------------------------------------------|
B|----------0-----------3-----------0-----------0--|
G|-------0------------0--0-------0---------0-2-2---|
D|------2-2----------0-0--0-----2-2-------0---0----|
A|-----3-----------------------3-------------------|
e|------------------3-------------------3----------|
[ Tab from: http://www.guitartabs.cc/tabs/p/paolo_santos/come_on_home_tab.html ]
     who.....you...still.even.....shaming
E|---------------------1--------------3-----------|
B|-------0------0-----0-0---1---------------------|
G|-----0--0----0-0---0-----0-0-----2--------------|
D|----2-2---2-0-----0-----2---2---0---------------|
A|---3-------2-----------0-----0------------------|
e|-----------------3------------------------------|



Pre-chorus II:

     Its...now..gone..I.....behav..self
E|-----------------0-------------------------0-----|
B|-------3----0---1-1----0-----0------0-----1-1----|
G|------0----0-0-2------0--0--0--0---0-0---2-------|
D|-----0----2---0------0--0--0--0---2-----0--------|
A|---------3-----------------------3---------------|
e|---3----------------3-----3----------------------|

     don't..eat....paint..___?___.own.............
E|--------------------------------------3--------3------|
B|------3------3------3------3-------1----1-----1--1----|
G|-----0--0---0--0---0--0---0--0----0--0-0--0--2--2-----|
D|----0--0---0--0---0--0---0--0----2---------0----------|
A|--------------------------------0---------------------|
e|---3------2------1------0-----------------------------|


Chorus II:

Come home............   Come home...yeahhh......  come
E|----------------------0--|-----------------0---|
B|------------3---0----1-1-|----0-3----0----1-1--|
G|------0-0--0---0-0--2----|---0-0----0-0--2-----|
D|-----0----0---2----0-----|--0------2----0------|
A|----2--------3-----------|--------3------------|
e|---3-----3---------------|-3-------------------|

  on home.................baby....home
E|--------------------------------------3-------3------|
B|------3------3------3------3-------1----1-------1----|
G|-----0--0---0--0---0--0---0--0----0--0---0--2--------|
D|----0--0---0--0---0--0---0--0----2---------0---------|
A|--------------------------------0--------------------|
e|---3------2------1------0----------------------------|


Pre-chorus III:

     Its...now..gone..I.....behav..self
E|---------0----0----------------------------0-----|
B|-------3-1---1---------3------3-----0-----1-1----|
G|------0--0--2---------0-0---0--0---0-0---2-------|
D|-----0---2-0---------0-----0------2-----0--------|
A|---------3-----------------------3---------------|
e|---3-----0----------3-----3----------------------|

     don't..dri....paint..___?___.own............. so please....
E|--------------------------------------3--------3------|
B|------3------3------3------3-------1----1-----1--1----|
G|-----0--0---0--0---0--0---0--0----0--0-0--0--2--2-----|
D|----0--0---0--0---0--0---0--0----2---------0----------|
A|--------------------------------0---------------------|
e|---3------2------1------0-----------------------------|


Chorus III:

Come home............  Come home...yeahhh......  come
E|---------------------0--|-----------------0--|
B|--------3-------0---1-0-|------3----0----1---|
G|------0---0----0-0-2----|----0-----0---2-----|
D|-----0-0-0-0--2---0-----|---0-0---2---0------|
A|----2--------3----------|--2-----3-----------|
e|---3--------------------|-3------------------|

  on home.................baby....home
E|-----------------------------------3----3---3----|
B|------3------3------3------3--------1--------1---|
G|-----0--0---0--0---0--0---0--0----0--------2-----|
D|----0--0---0--0---0--0---0--0----2-----2--0------|
A|--------------------------------0-----0----------|
e|---3------2------1------0------------------------|

Outro:

E|----------------------------|-----------------|
B|---0-----0-1-3-0----------0-|-0-----0-1-3-0---|
G|------0-0--------0-0-0h2-2--|----0-0----------|
D|-----2-2--------0-0-----0---|---2-2-----------|
A|---3------------------------|-3---------------|
e|---------------3------------|-------------3---|

Come On Home Lyrics
Paolo Santos


Baby come home I miss the sound of the door
Step on the stairs not gonna wake me no more
Every day is like Christmas day
Without you it's cold and there's nothing to do

It's mighty quiet here now that you're gone
And I've been behaving my self for too long
Cause I don't like drinking or watching TV own my own

Come on home.... come on home yeah...
Come on home.... baby come home...

Baby what's keeping you all of this time
Wasting the days our day on the sunshine
Who could I turn to if you believe still?
And even though love you your shaming with

It's mighty quiet here now that you're gone
And I've been behaving my self for too long
Cause I don't like eating or painting the tail own my own

Come on home.... come on home yeah...
Come on home.... baby come home...

It's mighty quiet here now that you're gone
And I've been behaving my self for too long
Cause I don't like drinking or painting the tail own my own 

So....please....
Come on home.... come on home yeah...
Come on home.... baby come home...
Comments