Pantera - Walk Chords & Tabs

 

Walk Chords & Tabs

Pantera Chords & Tabs

Version: 8 Type: Tab 0 ratings
1 star 2 stars 3 stars 4 stars 5 stars
comments

Walk Tab

In droped D tuning.

--------------------------------|-----------------
--------------------------------|-----------------
--------------------------------|-----------------
--------------------------------|-----------------
--------------------------------|-----------------
-------------0-0-3-2-0--0-3-2-0-|-0-3-2-0--0-3-2-0
                                 /                \
                                |play 3 more times|
[ Tab from: http://www.guitartabs.cc/tabs/p/pantera/walk_tab_ver_8.html ]
----------------------------------------|
----------------------------------------|
----------------------------------------|
----------------------------------------|
----------------------------------------|
--0-0-3-2-0-0--9------------------------|

----------------------------------------|
----------------------------------------|
----------------------------------------|
----------------------------------------|
----------------------------------------|
--0-0-3-2-0-0--6------------------------|

----------------------------------------|
----------------------------------------|
----------------------------------------|
----------------------------------------|
---------------5------------------------|
--0-0-3-2-0-0--3------------------------|
Comments