Pantera - Walk Chords & Tabs

 

Walk Chords & Tabs

Pantera Chords & Tabs

Version: 7 Type: Tab 0 ratings
1 star 2 stars 3 stars 4 stars 5 stars
comments

Walk Tab

tuned in drop d (tune the top string at the 7th fret)
some of this might be out of order....i dont know how many times to repeat any of it.
this is my first tab.

p=hammer off
x=palm mute
^=bend note-string

E-------------------|---------------------------------
B-------------------|---------------------------------
G-------------------|---------------------------------
D-x-x--2p1-0--x---5-|-x-x--2p1-0--x---3---------------
A-x-x--2p1-0--x---3-|-x-x--2p1-0--x---1---------------
D-x-x--2p1-0--x-----|-x-x--2p1-0--x-------------------
[ Tab from: http://www.guitartabs.cc/tabs/p/pantera/walk_tab_ver_7.html ]
E-----------------|-----------------|-----------------
B-----------------|-----------------|-----------------
G-----------------|-----------------|-----------------
D---------------8-|---------------6-|---------------6-
A---------------8-|---------------6-|---------------4-
D-0-0--1^--0-0--8-|-0-0--1^--0-0--6-|-0-0--1^--0-0----

E-----------------------------------------------------
B-----------------------------------------------------
G-----------------------------------------------------
D--------1---4---3---1--------------------------------
A--------1---4---3---1--------------------------------
D-0-0-0--1-0-4-0-3-0-1--------------------------------

thats all i know..my email is miserymachine@yahoo.com if anyone
knows the rest you better tell me!!!!!!!!
Comments