Pantera - Walk Chords & Tabs

 

Walk Chords & Tabs

Pantera Chords & Tabs

Version: 6 Type: Tab 0 ratings
1 star 2 stars 3 stars 4 stars 5 stars
comments

Walk Tab

   
comments? dot.dot@dom.ath.cx
drop D 

on this first part u have to "roll" your fingers from 2 to 1
e---------------------
B---------------------
G--------------------- like 5 times i think
D---------------------
A---------------------
D--0-0-2-1----0-2-1---
[ Tab from: http://www.guitartabs.cc/tabs/p/pantera/walk_tab_ver_6.html ]
e---------------------------------------------------
B---------------------------------------------------
G---------------------------------------------------
D---------------------------------------------------
A--------------8---------------6-------------------4
D-0-0-2-1---0--8--0-0-2-1---0--6------0-0-2-1---0--6

then its

e-----------------------------
B-----------------------------
G-----------------------------
D-----------------------------
A-----------------------------
D-0-0-0-1-0-3-0-4-0-3-0-1-----

what do i do......?
e----------------------------
B----------------------------
G----------------------------
D----------------------------
A----------4---4---3---6---7-
D-0-0-2-1--6---6---5---6---7-
Comments