Pantera - Walk Chords & Tabs

 

Walk Chords & Tabs

Pantera Chords & Tabs

Version: 4 Type: Tab 18 ratings
1 star 2 stars 3 stars 4 stars 5 stars
comments

Walk Tab

Walk   Pantera



Tabbed using www.GuitarAndBass.co.uk Transcription Tools v1.12
--------------------------------------------------------------
                                                                    
E||---------------------------------|------------------------------|
B||---------------------------------|------------------------------|
G||---------------------------------|------------------------------|
D||---------------------------------|------------------------------|
A||---------------------------------|------------------------------|
D||--0----0--2--1--0----0--2--1--0--|----0--2--1--0----0--2--1--0--|


                                                              
------------------------------|------------------------------|
------------------------------|------------------------------|
------------------------------|------------------------------|
------------------------------|-------------------------x----|
------------------------------|--------------------x---------|
----0--2--1--0----0--2--1--0--|----0--2--1--0----------------|


                                                                 
---------------------------------|------------------------------|
---------------------------------|------------------------------|
---------------------------------|------------------------------|
---------------------------------|------------------------------|
---------------------------------|------------------------------|
--0----0--2--1--0----0--2--1--0--|----0--2--1--0----0--2--1--0--|


                                                              
------------------------------|------------------------------|
------------------------------|------------------------------|
------------------------------|------------------------------|
------------------------------|-------------------------x----|
------------------------------|--------------------x---------|
----0--2--1--0----0--2--1--0--|----0--2--1--0----------------|


                                                              
|------------------------------|-----------------------------|
|------------------------------|-----------------------------|
|*-----------------------------|-----------------------------|
|*-----------------------------|-----------------------------|
|-------------------------8----|------------------------6----|
|---0----0--2--1--0----0--8----|--0----0--2--1--0----0--6----|


                              
-----------------------------|
-----------------------------|
-----------------------------|
-----------------------------|
------------------------4----|
--0----0--2--1--0----0--6----|


                                         
---------------------------------------||
---------------------------------------||
--------------------------------------*||
--------------------------------------*||
---------------------------------------||
--0--0--0--1--0--3--0--4--0--3--0--1---||


                                       
--------------------------------------|
--------------------------------------|
--------------------------------------|
--------------------------------------|
--------------------------------------|
--0--0--0--1--0--3--0--4--0--3--0--1--|


                                                                   
|----------------------------------|------------------------------|
|----------------------------------|------------------------------|
|*---------------------------------|------------------------------|
|*---------------------------------|------------------------------|
|----------------------------------|------------------------------|
|---0----0--2--1--0----0--2--1--0--|----0--2--1--0----0--2--1--0--|


                                                            
------------------------------|---------------------------||
------------------------------|---------------------------||
------------------------------|--------------------------*||
------------------------------|--------------------------*||
------------------------------|------------------4--4-----||
----0--2--1--0----0--2--1--0--|----0--2--1--0----6--6-----||


                                          
--------------------|--------------------|
--------------------|--------------------|
*-------------------|--------------------|
*-------------------|--------------------|
---3----------------|--6--------7--------|
---5----------------|--6--------7--------|


                                                                   
---------------------------------|-------------------------------||
---------------------------------|-------------------------------||
---------------------------------|------------------------------*||
---------------------------------|------------------------------*||
---------------------------------|-------------------------------||
--0----0--2--1--0----0--2--1--0--|----0--2--1--0----0--2--1--0---||


                                                            
-------------------|-------------------|-------------------|
-------------------|-------------------|-------------------|
-------------------|-------------------|-------------------|
-------------------|-------------------|-------------------|
--3----------------|--6----------------|--3----------------|
--5----------------|--6----------------|--3----------------|


                                                     
--------------------||------------------------------|
--------------------||------------------------------|
--------------------||*-----------------------------|
--------------------||*-----------------------------|
--2--------1--------||-------------------------8----|
--2--------1--------||---0----0--2--1--0----0--8----|


                                                            
-----------------------------|-----------------------------|
-----------------------------|-----------------------------|
-----------------------------|-----------------------------|
-----------------------------|-----------------------------|
------------------------6----|------------------------4----|
--0----0--2--1--0----0--6----|--0----0--2--1--0----0--6----|


                                         
---------------------------------------||
---------------------------------------||
--------------------------------------*||
--------------------------------------*||
---------------------------------------||
--0--0--0--1--0--3--0--4--0--3--0--1---||


                                       
--------------------------------------|
--------------------------------------|
--------------------------------------|
--------------------------------------|
--------------------------------------|
--0--0--0--1--0--3--0--4--0--3--0--1--|


                                                                   
|----------------------------------|------------------------------|
|----------------------------------|------------------------------|
|*---------------------------------|------------------------------|
|*---------------------------------|------------------------------|
|----------------------------------|------------------------------|
|---0----0--2--1--0----0--2--1--0--|----0--2--1--0----0--2--1--0--|


                                                          2x
------------------------------|---------------------------||
------------------------------|---------------------------||
------------------------------|--------------------------*||
------------------------------|--------------------------*||
------------------------------|------------------4--4-----||
----0--2--1--0----0--2--1--0--|----0--2--1--0----6--6-----||


                                          
--------------------|--------------------|
--------------------|--------------------|
*-------------------|--------------------|
*-------------------|--------------------|
---3----------------|--6--------7--------|
---5----------------|--6--------7--------|


                                                                 2x
---------------------------------|-------------------------------||
---------------------------------|-------------------------------||
---------------------------------|------------------------------*||
---------------------------------|------------------------------*||
---------------------------------|-------------------------------||
--0----0--2--1--0----0--2--1--0--|----0--2--1--0----0--2--1--0---||


                                                            
-------------------|-------------------|-------------------|
-------------------|-------------------|-------------------|
-------------------|-------------------|-------------------|
-------------------|-------------------|-------------------|
--3----------------|--6----------------|--3----------------|
--5----------------|--6----------------|--3----------------|

[ Tab from: http://www.guitartabs.cc/tabs/p/pantera/walk_tab_ver_4.html ]
                                                     
--------------------||------------------------------|
--------------------||------------------------------|
--------------------||*-----------------------------|
--------------------||*-----------------------------|
--2--------1--------||-------------------------8----|
--2--------1--------||---0----0--2--1--0----0--8----|


                                                            
-----------------------------|-----------------------------|
-----------------------------|-----------------------------|
-----------------------------|-----------------------------|
-----------------------------|-----------------------------|
------------------------6----|------------------------4----|
--0----0--2--1--0----0--6----|--0----0--2--1--0----0--6----|


                                         
---------------------------------------||
---------------------------------------||
--------------------------------------*||
--------------------------------------*||
---------------------------------------||
--0--0--0--1--0--3--0--4--0--3--0--1---||


                                       
--------------------------------------|
--------------------------------------|
--------------------------------------|
--------------------------------------|
--------------------------------------|
--0--0--0--1--0--3--0--4--0--3--0--1--|


                                       
--------------------------------------|
--------------------------------------|
--------------------------------------|
--------------------------------------|
--------------------------------------|
--0--0--0--1--0--3--0--4--0--3--0--1--|

Tabbed using www.GuitarAndBass.co.uk Transcription Tools v1.12
--------------------------------------------------------------
                                                              
--------------------------------------|----------------------|
--------------------------------------|--12b-----------13b---|
--------------------------------------|--12b-----------------|
--------------------------------------|----------------------|
--------------------------------------|----------------------|
--0--0--0--1--0--3--0--4--0--3--0--1--|----------------------|


                                                             
------------------------------10----------------------10----|
------10----10-------------------13-10-------------------13-|
---------13----13-12-10-12-13----------13-12-10-12-13-------|
------------------------------------------------------------|
------------------------------------------------------------|
------------------------------------------------------------|


                                             
-----------12b---10--12------10b------10-10-|
-------------------------13b-------13b------|
--13-12-10----------------------------------|
--------------------------------------------|
--------------------------------------------|
--------------------------------------------|


                                                        
----------10-14-10-14-10-14-10-14-10----10-------------|
--13b--------------------------------13----13-10-13-10-|
-------------------------------------------------------|
-------------------------------------------------------|
-------------------------------------------------------|
-------------------------------------------------------|


                                                        
-------------------------------------------------------|
-----10------------------------------------------------|
--13----13-12-10----12----10h11------10-11-10----10-11b|
-----------------12----12---------------------12-------|
-------------------------------------------------------|
-------------------------------------------------------|


                                                       
-----------------------------------|------------------|
-----------------------------------|------------------|
--11----10--10--11b-11-10-11-------|------------------|
-----------------------------------|------------------|
-----------------------------------|------------------|
-----------------------------------|------------------|


                                                           
--13----15----16----18b-------|------------------6--7-6---|
------------------------------|--3----------------------8-|
------------------------------|--3------------------------|
------------------------------|--3----5--3--5-------------|
------------------------------|---------------------------|
------------------------------|---------------------------|


                                                   
----------------------------|---------------------|
--5--6-5--------------------|---------------------|
---------7-4-5-4r-----5b-5b-|--3~------------5/---|
----------------------------|---------5/----------|
----------------------------|---------------------|
----------------------------|---------------------|


                      
---------------------|
---------------------|
-----------12~-------|
----5/---------------|
---------------------|
---------------------|


                                                   
--------------------------------------------------|
--------------------------------------------------|
------12----------12----------12----------12------|
--12------12--11------11h-12------12--11------11h-|
--------------------------------------------------|
--------------------------------------------------|


                                    
-----------------------------------|
--------------------------------3/-|
------12------12------12b----------|
--12------12------12---------------|
-----------------------------------|
-----------------------------------|


                                                
-----8---------10----------14----------17------|
--7-----7/-10------10/-13------13/-16------16/-|
-----------------------------------------------|
-----------------------------------------------|
-----------------------------------------------|
-----------------------------------------------|


                                                        
------20------20------20b---------|--------------------|
--19------19------19--------------|--10/---------------|
----------------------------------|--------------------|
----------------------------------|--------------------|
----------------------------------|--------------------|
----------------------------------|--------------------|


                                                                 
---------------------------------|------------------------------|
---------------------------------|------------------------------|
---------------------------------|------------------------------|
---------------------------------|------------------------------|
---------------------------------|------------------------------|
--0----0--2--1--0----0--2--1--0--|----0--2--1--0----0--2--1--0--|


                                                              
------------------------------|------------------------------|
------------------------------|------------------------------|
------------------------------|------------------------------|
------------------------------|-------------------------x----|
------------------------------|--------------------x---------|
----0--2--1--0----0--2--1--0--|----0--2--1--0----------------|


                                                              
|------------------------------|-----------------------------|
|------------------------------|-----------------------------|
|*-----------------------------|-----------------------------|
|*-----------------------------|-----------------------------|
|-------------------------8----|------------------------6----|
|---0----0--2--1--0----0--8----|--0----0--2--1--0----0--6----|


                              
-----------------------------|
-----------------------------|
-----------------------------|
-----------------------------|
------------------------4----|
--0----0--2--1--0----0--6----|


                                       3x
---------------------------------------||
---------------------------------------||
--------------------------------------*||
--------------------------------------*||
---------------------------------------||
--0--0--0--1--0--3--0--4--0--3--0--1---||


                                       
--------------------------------------|
--------------------------------------|
--------------------------------------|
--------------------------------------|
--------------------------------------|
--0--0--0--1--0--3--0--4--0--3--0--1--|


                                   8x
|----------------------------------||
|----------------------------------||
|*--------------------------------*||
|*--------------------------------*||
|------------1--0-----------1--0---||
|---0--0--0--1--0--0--0--0--1--0---||


Tabbed using www.GuitarAndBass.co.uk Transcription Tools v1.12
--------------------------------------------------------------
Comments