Pantera - Walk Chords & Tabs

 

Walk Chords & Tabs

Pantera Chords & Tabs

Version: 10 Type: Tab 0 ratings
1 star 2 stars 3 stars 4 stars 5 stars
comments

Walk Tab

   
this is not only my interpretation but is also from the book 
ok tune to drop "D" which means match you "E" to your "D" string

~=note bend
x=palm mute
p=pull off
\=slide down
/=slide up

e--------------I--------------------------
B--------------I--------------------------
G--------------I--------------------------
D--------------I--------------------------
A--------------I--------------------------
E-0--0----1~0--I---0--1~-0----------------(repeat second bar 6x)

e--------------I--------------------------
B--------------I--------------------------
G--------------I--------------------------
D--------------I--------------------------
A--------------I--------------------------
E-6\4/10-------I---0--1~-0----------------(repeat 6x)

e--------------I--------------------------
B--------------I--------------------------
G--------------I--------------------------
D--------------I--------------------------
A--------------I--------------------------
E-6\4/10-------I--0--0-1~-0 --------------

e----------------------------------------
B----------------------------------------
G-----3----------------------------------
D-0---3------------0---6-----------0---5-
A-0---1------------0---6-----------0---5-
E-0------0-0-1~-0--0---6--0-0-1~0--0---5-
  x                x               x


e----------------------------------------
B----------------------------------------
G----------------------------------------
D----------------------------------------
A---1---2---3---2---1---2---3---2---1---0
E-0-1-0-2-0-3-0-2-0-1-0-2-0-3-0-2-0-1-0-0(play real fast)

e-----------------------------------------
B-----------------------------------------
G-----------------------------------------
D-----------------------------------------
A-----------------------------------------
E-0--0--1~0-------------------------------

e----------------------------------------
B----------------------------------------
G-----3----------------------------------
D-0---3------------0---6-----------0---5-
A-0---1------------0---6-----------0---5-
E-0------0-0-1~-0--0---6--0-0-1~0--0---5-
  x                x               x

e----------------------------------------
B----------------------------------------
G----------------------------------------
D----------------------------------------
A---1---2---3---2---1---2---3---2---1---0
E-0-1-0-2-0-3-0-2-0-1-0-2-0-3-0-2-0-1-0-0(play fast 2x)

Can't you see i'm easily bothered by persistance!!
one step from lashing out at you!!!!!
e--------------I--------------------------
B--------------I--------------------------
G--------------I--------------------------
D--------------I--------------------------
A--------------I--------------------------
E-0--0----1~0--I---0--1~-0----------------(repeat second bar 8x)

e--------------I--------------------------
B--------------I--------------------------
G--------------I--------------------------
D--------------I--------------------------
A--------------I--------------------------
E-6\4/10-------I--0--0-1~-0 --------------

you wantin' to get under my skin
and call yourself a friend
i've got more friends like you what do i do
e------------I------------------------------
B------------I------------------------------
G------------I------------------------------
D------------I------------------------------
A------------I------------------------------
E--0-0-1~0---I--0-1~0-----------------------(reapeat 7 x)

 is there no standard anymore?!?!
e---------------------------------------------
B---------------------------------------------
G---------------------------------------------
D----6----5----3------------------------------
A----6----5----3------------------------------
E----6----5----3------------------------------

  What it takes, who I am, where I've been belong
e-------------------------------------------------
B-------------------------------------------------
G-------------------------------------------------
D-----1--3--0----1--3--0-----1---3--0----1--3--0--
A-----1--3--0----1--3--0-----1---3--0----1--3--0--
E--0--1--3--0----1--3--0-----1---3--0----1--3--0--

 you can't be something your not!!!
e-----------------------------------------------
B-----------------------------------------------
G-----------------------------------------------
D-----6----5----3-------------------------------
A-----6----5----3-------------------------------
E-----6----5----3-------------------------------

 Be yourself, by yourself Stay away from me 
e-------------------------------------------------
B-------------------------------------------------
G-------------------------------------------------
D-----1--3--0----1--3--0-----1---3--0----1--3--0--
A-----1--3--0----1--3--0-----1---3--0----1--3--0--
E--0--1--3--0----1--3--0-----1---3--0----1--3--0--

A lesson learned in life Known from the dawn of time
e-----------------------------------------------
B-----------------------------------------------
G-----------------------------------------------
D-----6----5------------6----5---3-------------
A-----6----5------------6----5---3-------------
E-----6----5------------6----5---3-------------
[ Tab from: http://www.guitartabs.cc/tabs/p/pantera/walk_tab_ver_10.html ]
e-----------------------------------------
B-----------------------------------------
G-----------------------------------------
D-----------------------------------------
A-----------------------------------------
E-0--0--1~0-------------------------------
      RE-            SPECT!!        WALK!!
e----------------------------------------
B----------------------------------------
G-----3----------------------------------
D-0---3------------0---6-----------0---5-
A-0---1------------0---6-----------0---5-
E-0------0-0-1~-0--0---6--0-0-1~0--0---5-
  x                x               x

 WHAT DID YA SAY?!?!?!?!
e----------------------------------------
B----------------------------------------
G----------------------------------------
D----------------------------------------
A---1---2---3---2---1---2---3---2---1---0
E-0-1-0-2-0-3-0-2-0-1-0-2-0-3-0-2-0-1-0-0(play fast 2x)

at this point the song repeats itself jsut with different lyrics
so im going to write the lyrincs then the solo 

 Run your mouth when I'm not around
It's easy to achieve
You cry to weak friends that sympathize

Can you hear the violins playing your song?
Those same friends tell me your every word

 (Pre) Is there no standard anymore?
What it takes, who I am, where I've been
Belong
You can't be something you're not
Be yourself, by yourself
Stay away from me
A lesson learned in life
Known from the dawn of time 

 Are you talking to me? No way punk

e|---------x--------------------------------------10----------------------|
b|-13b14~~-x--13b15~~-10------10----------------------13p10---------------|
g|-12b14~~-x--------------13------13p12p10-12h13--------------13p12p10----|
D|------------------------------------------------------------------------|
A|------------------------------------------------------------------------|
D|------------------------------------------------------------------------|


e|--------10---------------------12b14~~--10-12---------10h14p10---|
b|------------13p10------------------------------13b15-------------|
g|-12h13--------------13p12p10-------------------------------------|
D|-----------------------------------------------------------------|
A|-----------------------------------------------------------------|
D|-----------------------------------------------------------------|


e|--------10-----------10-14p10------10-14p10-14p10------10---------------|
b|-13b15------13b15~~------------13------------------13------13p10-13p10--|
g|------------------------------------------------------------------------|
D|------------------------------------------------------------------------|
A|------------------------------------------------------------------------|
D|------------------------------------------------------------------------|


e|---------------------------------------------------------------------|
b|-----10--------------------------------------------------------------|
g|-13------13p12p10------12--------10h11p10------10-11~~~~--10h11~~~~--|
D|-------------------12------12--------------12------------------------|
A|---------------------------------------------------------------------|
D|---------------------------------------------------------------------|


e|-------------------------------13-15-16-17b20~~--------------------------|
b|-----------------------x--/15----------------------/5--3~----------------|
g|-11~~~~--10-11b13~~~~--x---------------------------/5--3~----------------|
D|-------------------------------------------------------------5~-3-5~~~---|
A|-------------------------------------------------------------------------|
D|-------------------------------------------------------------------------|


e|-6-h7p3----------------------------------------------------------------------|
b|---------5-h6p3--------------------------------------------------------------|
g|-----------------4b5r4b5r4~~-5b7-5b7r5--3~~~--/x\------/x\---x\-------/12~~--|
D|---------------------------------------------------x\------------/x\---------|
A|-----------------------------------------------------------------------------|
D|-----------------------------------------------------------------------------|


e|----------------------------------------------------------------------------|
b|----------------------------------------------------------------------------|
g|------12---------12---------12---------12---------12------12------12b13~~~--|
D|-/12------12\11------11/12------12\11------11/12------12------12------------|
A|----------------------------------------------------------------------------|
D|----------------------------------------------------------------------------|


e|-----8--------11---------14---------17---------20------20-------20b22~~--|
b|-/7-----7/10------10/13------13/16------16/19------19-------19-----------|
g|-------------------------------------------------------------------------|
D|-------------------------------------------------------------------------|
A|-------------------------------------------------------------------------|
D|-------------------------------------------------------------------------|


e|-(22)r20\-----------|
b|--------------------|
g|--------------------|
D|--------------------|
A|---------------x\---|
D|---------------x\---|
Comments