Pantera - Walk Chords & Tabs

 

Walk Chords & Tabs

Pantera Chords & Tabs

Version: 1 Type: Tab 2 ratings
1 star 2 stars 3 stars 4 stars 5 stars
comments

Walk Tab

   
song:walk
artist:pantera
album:official live (the one i used to figgure this tab out)
this song is in D tunning. (	D,A,D,G,B,A)
This tab is 100% right!
This is my fist tab i ever wrote in http://www.guitartabs.cc My computer is mest up so when i had to write cords 
some of them didnt line up. Any qustioms comments or concerns contact me at frantic1@fronteirnet.net This 
tab is kinda hard for prople who just started to play the guitar but for other people it should besomewhat easy.
B=bend
~=vibrato
p=pull uff
h=hammer on

INTRO/VERSE1
--------------------------------------------------------------------------------------------------------------------------------------------------
--------------------------------------------------------------------------------------------------------------------------------------------------
--------------------------------------------------------------------------------------------------------------------------------------------------
--------------------------------------------------------------------------------------------------------------------------------------------------
--------------------------------------------------------------------------------------------------------------------------------------------------
----0------0------1b------0------0------1b------0-----0------1b---------------------------------------------------------------------------------

	CHOROUS					

-------------------------------------8-----------------------------------------------6----------------------------------------------6--------------
-------------------------------------8-----------------------------------------------6----------------------------------------------4---------------
----0------0-----1----0----0-------8------------0-----0-----1------0-----0------6----------0------0-----1----0-----0--------6----------------


FILLIN1
-----------------1---------3--------4-------3--------1
-----------------1---------3--------4-------3--------1
----0---0---0--1-----0---3---0---4---0---3---0----1

SOLO
---------------------------------------------------------------------------------------------------------------------10------------------------------
---13b-----------------------------13b~~~~~~~~~----------10------------10---------------------------------------13p10----------------------
---12b------------x-----------------------------------------------------13--------------13-12-10-12-13-------------------------13-12-10-12-13
--------------------x----------------------------------------------------------------------------------------------------------------------------------
--------------------x-------------------------------------------------------------------------------------------------------------------------------
----------------------------------------------------------------------------------------------------------------------------------------------------


--10----------------------------------12b~~~~~~~~~~~------10------12------------------10-----14--------------10-------------------------------------------------------------
-------13p10----------------------------------------------------------------------13b-----------------------13b----------------------------------------------
---------------------13-12-10---------------------------------------------------------------------------------------------------------------------------
--------------------------------------------------------------------------------------------------------------------------------------------------
--------------------------------------------------------------------------------------------------------------------------------------------------
---------------------------------------------------------------------------------------------------------------------------------------------------

---------------------------------10-------14p10----------10---14p10------10h14p10---------------10------------------------------------------------------------------------
-----13b~~~~~~~~~-----------------------------13----------------------------------------13-------------13----10h13p10-------------------------------------------------------
--------------------------------------------------------------------------------------------------------------------------------------------------
--------------------------------------------------------------------------------------------------------------------------------------------------
--------------------------------------------------------------------------------------------------------------------------------------------------
--------------------------------------------------------------------------------------------------------------------------------------------------

[ Tab from: http://www.guitartabs.cc/tabs/p/pantera/walk_tab.html ]
---------------------------------------------------------------------------------------------------------------------------------------
------------------10---------------------------------------------------------------------------------------------------------------------
--------13----------------13p12p10--------------12----------10h11~~~~~~~~~~----------10h11p10----------------10p11~~~~-------------------------------------------------------------
----------------------------------------------12-----------12-----------------------------------------------------------12-------------------
---------------------------------------------------------------------------------------------------------------------------------------
---------------------------------------------------------------------------------------------------------------------------------------


---------------------------------------------------------------------------------------------------------------------------------
-------------------------------------------------------------------------------------------------------15--------------------------
---10h11b----------(11)~~~~--------10h11----(11)b-------(11)----------x---------------------------------------------------------------------------------------
-----------------------------------------------------------------------------------x---------------------------------------------
-----------------------------------------------------------------------------------x----------------------------------------------
-----------------------------------------------------------------------------------------12p10----------------------------------------


-----13------------15------------16------------17~~~~~~~---------------(17)-------------------------------------------------------------------------
--------------------------------------------------------------------------------------------------------------3h5-----3~~~~~~~~--------------
--------------------------------------------------------------------------------------------------------------3h5-----3~~~~~~~~-------------
---------------------------------------------------------------------------------------------------------------------------------
--------------------------------------------------------------------------------------------------0-------------------------------
---------------------------------------------------------------------------------------------------------------------------------


------------------------------------6h7p6p3----------------------------------------------------------------------------------------------
--------------------------------------------------5h65p3--------------------------------------------------------------------------------
-------------------------------------------------------------------4h5p4b--(4)--------------------5b-----(5)bh9~~~~------------------------------------
-------5p3---------5p(0)----------------------------------------------------------------0--------------------------------------------------
-------------------------------------------------------------------------------------------0---------------------------------------
----------------------------------------------------------------------------------------------------------------------------------


----------------------------------------------------------------------------------------------------------------------
-----------------------------------------------------------------------------------------------------------------------
----(3)---0---1s12s19---0---1s7s11---0---1s7s12---0---1s12~~~~~~~~------------------------------------------------------------------------------------------
-------------------------------------------------------------------------------------------0--------7s12--------------------
-------------------------------------------------------------------------------------------0---------------------------
-----------------------------------------------------------------------------------------------------------------------


-----------------------------------------------------------------------------------------------------------------------
-----------------------------------------------------------------------------------------------------------------------
----12-------------------12-----------------12-----------------------12--------------------12---------------12----------------12~~~~~~~-----
------------12s11--------------11s12---------------12s11----------------11s12----------------12--------------12--------------------------------
-----------------------------------------------------------------------------------------------------------------------
-----------------------------------------------------------------------------------------------------------------------


--------------------------------8-------------------11-----------------14------------------17------------------20----------20--------------20b----
--------------------3s7----------------7s10---------------10s13---------13s16----------------16s19-------------19------------19-----------20-------
-----(12)------------------------------------------------------------------------------------------------------------------
-----------------------------------------------------------------------------------------------------------------------
-----------------------------------------------------------------------------------------------------------------------
-----------------------------------------------------------------------------------------------------------------------


FILLIN2
-----------------------------------------------------------------------
-----------------------------------------------------------------------
-----6--------6---6---6---6-------------------------------------------------
-----6--------6---6---6---6-------------------------------------------------
----4---------4---4---4---4-------------------------------------------------
-----6--------6---6---6---6-------------------------------------------------
PM_______________



ORDER OF SONG:
INTRO
CHOROUS
FILLIN1
VERSE1
FILLIN2
VERSE1
CHOROUS
FILLIN1
VERSE1
SOLO
VERSE1
CHOROUS


Im mising some fillings but most of the song is here enjoy. PEASE OUT!
Comments