Pantera - Walk Solo Chords & Tabs

 

Walk Solo Chords & Tabs

Pantera Chords & Tabs

Version: 1 Type: Tab 0 ratings
1 star 2 stars 3 stars 4 stars 5 stars
comments

Walk Solo Tab

Walk (solo)
Pantera

  Grad.FB                  FB~~
E-----------------------------|
B--13-----------------x----13-|
G--12-----------------x-------|
D---------------------x-------|
A-----------------------------|
e-----------------------------|

~~~~~~~~~~~~
E-----------------------------------10----------------------10----|
B-----------10----10-------------------13p10-------------------13p|
G--------------13----13p12p10h12h13----------13p12p10h12h13-------|
D-----------------------------------------------------------------|
A-----------------------------------------------------------------|
e-----------------------------------------------------------------|

              FB~~~       FB        FB
E-------------12----10-12-----10-14-----10-|
B-10----------------------13--------13-----|
G----13p12p10------------------------------|
D------------------------------------------|
A------------------------------------------|
e------------------------------------------|

   FB~~~~~~~~
E-------------10--14p10----10-14p10-10h14p10-----10-------------|
B--13-------------------13--------------------13----13-10h13p10-|
G---------------------------------------------------------------|
D---------------------------------------------------------------|
A---------------------------------------------------------------|
e---------------------------------------------------------------|

                               ~~~~~~~~~~~~~~~~~~                ~~
E------------------------------------------------------------------|
B-----10-----------------------------------------------------------|
G--13----13p12p10----12----10h11------------------10h11p10----10h11|
B-----------------12----12---------------------------------12------|
A------------------------------------------------------------------|
e------------------------------------------------------------------|

~~~~~~~~    2 1/2+r           Grad.FB__
E------------------------------------|
B------------------------------------|
G-------10h11-----(11)---10h11-(11)--|
D------------------------------------|
A------------------------------------|
e------------------------------------|
[ Tab from: http://www.guitartabs.cc/tabs/p/pantera/walk_solo_tab.html ]
       
(keep bending up)
__2 1/2                                      1 1/2
            ~~~~~~~                          ~~~~~~
E---------------------------------|-13-15-16-17----(17)\----------|
B-----------------------------/15-|--------------------------3/5\-|
G----------(11)----X\-------------|--------------------------3/5\-|
D------------------X\-------------|-------------------------------|
A------------------X\-------------|-----------------------0-------|
e---------------------12\10-------|-------------------------------|


   ~~~~~~        ~~~~                            2 1/2+r   FB   FB+r
E------------------------6-h7p6p3-|-----------------------------------|
B-\3------------------------------|-5-h6p5p3--------------------------|
G-\3------------------------------|----------4h5p4---(4)---5----5-(5)-|
D---------5-p-3--5-p-(0)----------|----------------------0-----X------|
A---------------------------------|----------------------0----X-------|
e---------------------------------|-----------------------------------|


   ~~~~ *|------------------------------------------------------|~~~
E-----------------------------------|---------------------------------|
B-----------------------------------|---------------------------------|
G--p3---(3)-p-0-h-1-/12/19-p-0-h-1-/|7/11-p-0--1-/-7/12-p-0-h-1-12----|
D-----------------------------------|------------------------------0-7|
A-----------------------------------|------------------------------0--|
e-----------------------------------|---------------------------------|
*None of these notes are picked, all slides, hammer-ons & pull offs.


                                                       FB~~~~~~
E-------------------------------------|-------------------------------|
B-------------------------------------|-----------------------------3/|
G-----12-------12-------12-------12---|-----12----12---12-----(12)\---|
D-/12----12\11----11/12----12\11----11|-/12----12----12---------------|
A-------------------------------------|-------------------------------|
e-------------------------------------|-------------------------------|


                                                       1 1/2 hold bend
E-----8------11-------14-------17----|-----20----20----20-------------|
B--/7---7/10----10/13----13/16----16/|-/19----19----19----------------|
G------------------------------------|--------------------------------|
D------------------------------------|--------------------------------|
A------------------------------------|--------------------------------|
e------------------------------------|--------------------------------|


Key

FB    = full bend
HB    = half bend
1 1/2 = bend one and a half steps
2 1/2 = bend two and a half steps
+r    = and release
Grad. = gradual bend
~~~~~ = Vibrato










Comments