Pantera - Uplift Chords & Tabs

 

Uplift Chords & Tabs

Pantera Chords & Tabs

Version: 2 Type: Tab 0 ratings
1 star 2 stars 3 stars 4 stars 5 stars
comments

Uplift Tab

   
From:Lee Catling [sirlee17@hotmail.com]                          
Sent:Thursday, May 18, 2000 11:30AM
To:alexk@atmetal.com
Subject:PanterA

Uplift-PanterA

tune down 1\2 a step
\-slide up
/-slide down
p-pull off
h-hammer on
b-bend
ph-pitch harmonics

riff1
the start after drum beats
---------------------------------------------------------]
---------------------------------------------------------]
---------------------------------------------------------]
---------------------------------------------------------]
---------------------------------------------------------]
5p0-2p0-85-0-5p0-2p0-85-0-5p0-2p0-85-0-2p00-8p00-5p0-----]
[ Tab from: http://www.guitartabs.cc/tabs/p/pantera/uplift_tab_ver_2.html ]
riff2
--------------------------------------------------------]
--------------------------------------------------------]
--------------------------------------------------------]
--------------------------------------------------------]
--------------------------------------------------------]
5p0-2p0-85-0-5p0-2p0-85-0-5p0-2p0-85-0-5p00-5p00-5p0----]

riff3
uhhhhhhhh!
------------------------
------------------------
------------------------
------------------------
-7\3--------------------
-5\1--------------------

riff4
------------------------
------------------------
------------------------
------------------------
-5-4-3-xxxxx--5-6-7-----
-3-2-1-xxxxx--3-4-5-----

chorus
UPLIFT!
-----------------------------
-----------------------------
-----------------------------
-2-2-x-x---------------------
-2-2-x-x-3/4-x-x-4/5-x-x-5/6-
-0-0-x-x-1/2-x-x-2/3-x-x-3/4-

chorus cont

-------------------------------
-------------------------------
-------------------------------
-2-2-x-x-----------------------
-2-2-x-x-3-4-5-6-7-8-9--10--11-
-0-0-x-x-1-2-3-4-5-6-7---8---9-


riff1
riff2
riff1
riff2
riff3
riff1
riff2
riff1
riff2
riff4
chorusx2
chorus cont
chorus
riff3[with some blank outs]x3

There it is folks dont have it all but a good amount now drink a black tooth 
grin.
Comments