Pantera - Throes Of Rejection Chords & Tabs

 

Throes Of Rejection Chords & Tabs

Pantera Chords & Tabs

Version: 1 Type: Tab 0 ratings
1 star 2 stars 3 stars 4 stars 5 stars
comments

Throes Of Rejection Tab

   

Author/Artist: Pantera
Title: Throes of Rejection
Album: Far Beyond Driven
Transcribed by: Alex
Email: ddwashburn@aol.com

This is the whole song except the solo.  I got it from the guitar book so it should be correct

------------------------------------------------------------------------------
------------------------------------------------------------------------------
-9--------3-7-6----3-7----------------------3-7-6---------------3-7-6---------
-9--------------3------/5----------------4--------3-------------------4-4b----
-7------------------------------4--------------------5--------4---------------
-0------------------------3-7-6----3-7-6----------------3-7-6--------------3--
 w/ wah   This is the intro part with notes that are half and whole notes.

------------------------------------------------------------------------------
------------------------------------------------------------------------------
------------------------------------------------------------------------------
------------------------------------------------------------------------------
-----5-5b---------------------------------------------------------------------
-7-6--------------------------------------------------------------------------
 Figure out the rhythm of it.  I didn't space them out accordingly

------------------------------------------------------------------------------
------------------------------------------------------------------------------
------------------------------------------------------------------------------
------------------------------------------------------------------------------
-3--3333--33-3--------------------------3--3333-3--3--------------------------
-1--1111--11-1--------------------------1--1111-1--1--------------------------
 pm---------- play 7x then next riff               THIS IS FEEDING WHAT I AM

------------------------------------------------------------------------------
------------------------------------------------------------------------------
------------------------------------------------------------------------------
------------------------------------------------------------------------------
-3--3333-33-3--3335--33335-3-7-8-7--3335---3335--3335-3-7-8-9-----------------
-1--1111-11-1--1113--11113-1-5/6\5--1113---1113--1113-1-5/6/7-----------------
    Figure out how many times to do these riffs and stuff

------------------------------------------------------------------------------
------------------------------------------------------------------------------
--3-7-6-----------3-7---------------------------------3-----7-6---------------
--------3-------------5-4----------4---4---4b-------3-----------4-4b----------
----------------4---------------5----5---5--------------4----------------5----
----------3-7-6-----------3-7-6---------------3-7-6-------3----------7-6------
  w/ wah  VERSE RIFF

------------------------------------------------------------------------------
------------------------------------------------------------------------------
-------------------5-----------3-----------5----------------------------------
-------------------5v----------3v----------5v---------------------------------
-5b------2-2-2-2-2---2-2-2-2-2---2-2-2-2-2----2-2-2-2-2-----------------------
---------0-0-0-0-0---0-0-0-0-0---0-0-0-0-0----0-0-0-0-0-----------------------
        CHORUS: RE-JEC-TION  After this go back in to F power chord riff

------------------------------------------------------------------------------
------------------------------------------------------------------------------
------------------------------------------------------------------------------
------------------------------------------------------------------------------
-----5-3----------------------------------------------------------------------
----/3-1----------------------------------------------------------------------
 Fill: SHORT FUSE!!!!

-------------------------------------------------------------x----------------
-------------------------------------------------------------x----------------
------------------------------------------------------------------------------
------------------------------------------------------------------------------
-2-2-2-2-------------2-2-2-------------2-2-2-2-------------2------------------
-0-0-0-0-6b-5b-4b-3b-0-0-0-6b-5b-4b-3b-0-0-0-0-6b-5b-4b-3b-0------------------
 The end riff (one of the coolest riffs) Open E's are muted  Strike sirings

------------------------------------------------------------------------------
------------------------------------------------------------------------------
------------------------------------------------------------------------------
------------------------------------------------------------------------------
------------------------------------------------------------------------------
---------------------------6b-------------------------------------------------
 on other side of the nut  Last note with feedback


Author/Artist: Pantera
Title: Throes of Rejection
Album: Far Beyond Driven
Transcribed by: Ron Murphy
Email: ronmurphy@hotmail.com

This is the throes of rejection solo

------------------------------------------------------------------------------
--15b--17bv-17b-17b-17b-17bv---17b--20bv--20b-20b-20b-20bv--------------------
------------------------------------------------------------------------------
------------------------------------------------------------------------------
------------------------------------------------------------------------------
------------------------------------------------------------------------------


------------------------------------------------------------------------------
-------17---------17---------17-----------17----------17----------------------
-/16-------16v---------15v-------14v-----------15v---------16v----------------
------------------------------------------------------------------------------
------------------------------------------------------------------------------
------------------------------------------------------------------------------

[ Tab from: http://www.guitartabs.cc/tabs/p/pantera/throes_of_rejection_tab.html ]
------15-17h18p17p15-------x-15p12-15p12-17-----------------------------------
--17------------------17---------------------15p12-15p12-15p12----------------
------------------------------------------------------------------------------
------------------------------------------------------------------------------
------------------------------------------------------------------------------
------------------------------------------------------------------------------


--------------------------------|---------------------------------------------
-15-15p12-15-11h14p11-----------|---------------------------------------------
------------------------14--13bv|---------------------------------------------
--------------------------------|----------------------t19p15h12-t19p15h12----
--------------------------------|-t19p15h12-t19p15h12-------------------------
--------------------------------|---------------------------------------------


------------------------------------------------------------------------------
------------------------------------------------------------------------------
-t19p12h15-t19p12h15-----------------------t19p12h15-t19p12h15----------------
----------------------t19p12h15-t19p12h15-------------------------------------
------------------------------------------------------------------------------
------------------------------------------------------------------------------


-----------------------t19p12h15-t19p12h15-------------t19p12h15--------------
-t19p12h15-t19p12h15-------------------------t19p12h15------------------------
------------------------------------------------------------------------------
------------------------------------------------------------------------------
------------------------------------------------------------------------------
------------------------------------------------------------------------------


-20b--------------------------------------------------------------------------
-------------------------------------------10----------10---------10----------
-----------7h9-9b-9------9-7v--------12b---------12b--------12b---------------
------7h9---------------------------------------------------------------------
------------------------------------------------------------------------------
------------------------------------------------------------------------------
                 A.H.

-----------------------------------------------------------12bv---------13b---
-------10v----12bv----------11p10h11p10h11\10p9h10p9h10p9---------------------
-12b--------------------------------------------------------------------------
------------------------------------------------------------------------------
------------------------------------------------------------------------------
------------------------------------------------------------------------------


-5h8p5------------------7-7h10p7--------------------8-8h11p8------------------
--------5------5h8p5-------------7------7h101p7--------------8----------------
----------5----------4-------------7-------------6-------------8--------------
------------7------------------------9---------------------------10-----------
------------------------------------------------------------------------------
------------------------------------------------------------------------------


-----------10-10h13p10-----------------------12-12h15p12----------------------
-8h11p8----------------10--------10h13p10----------------12-------------------
--------7-----------------10--------------9-----------------12----------------
-----------------------------12-------------------------------14--------------
------------------------------------------------------------------------------
------------------------------------------------------------------------------


------------------------------------------------------|-----------------------
-12h15p12---------------------------------------------|-----------------------
----------11-14p10-14p10-0-14p10----10h14p10h14p10----|-----------------------
---------------------------------12----------------12-|-----------------------
------------------------------------------------------|-10h12h14p12p10--------
------------------------------------------------------|-----------------------


------------------------------------------------------------------------------
---------------------------------12h13p12----------12h13p12-------------------
-----------------10h12h14p12p10-----------14p13h13----------14p13h14----------
-10h12h14p12p10---------------------------------------------------------------
------------------------------------------------------------------------------
------------------------------------------------------------------------------


---------------------------------------------------13h15h17p15p13-------------
-12----12-13p12--------------------13h15h17p15p13-----------------------------
----14----------14-12h14h16p14p12---------------------------------------------
------------------------------------------------------------------------------
------------------------------------------------------------------------------
------------------------------------------------------------------------------


-17171717-------19191919--------17171717-------19191919-------17171717--------
----------20p18----------22p20-----------20p18----------22p20-----------------
------------------------------------------------------------------------------
------------------------------------------------------------------------------
------------------------------------------------------------------------------
------------------------------------------------------------------------------


-------19191919-------20202020-------22b--------------------------------------
-20p18----------22p20----------24p22------10h12h13-10h12h13-10h12h13-10b------
------------------------------------------------------------------------------
------------------------------------------------------------------------------
------------------------------------------------------------------------------
------------------------------------------------------------------------------
Comments