Pantera - This Love Chords & Tabs

 

This Love Chords & Tabs

Pantera Chords & Tabs

Version: 4 Type: Tab 0 ratings
1 star 2 stars 3 stars 4 stars 5 stars
comments

This Love Tab

   
                                    THIS LOVE
                             As recorded by Pantera
                  (From the 1992 Album VULGAR DISPLAY OF POWER)

Words and Music by Pantera
Arranged by Pantera
Eb Tuning

 Intro
  Slow Rock Q=98
 4/4
  Gtr I
  E E E E E E E E   E E E E E E E E   E E E E E E E E   E E E E E E E E
|-----------------|-----------------|-----------------|-----------------|
|-----------------|-----------------|-----------------|-----------------|
|-----------------|-----------------|-----------------|-----------------|
|-----2-----2-----|-----2-----2-----|-----2-----2-----|-----2-----2-----|
|---4-----4---4---|---4-----4---4---|---4-----4---4---|---4-----4---4---|
|-2-----3-------3-|-2-----3-------3-|-2-----3-------3-|-2-----3-------3-|


  E E E E E E E E   E E E E E E E E   E E E E E E E E   E E E E E E E E
|-----------------|-----------------|-----------------|------------------|
|-----------------|-----------------|-----------------|------------------|
|-----2-----2-----|-----2-----2-----|-----------------|------------------|
|---4-----4---4---|---4-----4---4---|-----2-----2-----|-----2-----2------|
|-2-----3-------3-|-2-----3-------3-|---4-----4---4---|---4-----4---4----|
|-----------------|-----------------|-2-----3-------3-|-2-----3-------3--|


                                                              Am
  E E E E E E E E   E E E E E E E E   E E E E E E E E   E E E E +H
|-----------------|-----------------|-----------------|----------------|
|-----------------|-----------------|-----------------|----------------|
|-----0-----0-----|-----2-----0-----|-----2-----0-----|----------------|
|---2-----2---2---|---2-----2---2---|---2-----2---2---|-----2-2-(2)----|
|-4-----3-------3-|-4-----3-------3-|-4-----3-------3-|---2---3-(3)----|
|-----------------|-----------------|-----------------|-4-----5-(5)----|


                1st and 2nd Verse
  +W             E E E E E E E E   E E E E E E E E   E E E E E E E E
|------------||------------------|-----------------|------------------|
|------------||o-----------------|-----------------|------------------|
|------------||------------------|-----------------|------------------|
|-(2)--------||------2-----2-----|-----2-----2-----|-----2-----2------|
|-(3)--------||o---4-----4---4---|---4-----4---4---|---4-----4---4----|
|-(5)--------||--2-----3-------3-|-2-----3-------3-|-2-----3-------3--|


  E E E E E E E E   E E E E E E E E   E E E E E E E E   E E E E E E E E
|-----------------|-----------------|-----------------|------------------|
|-----------------|-----------------|-----------------|------------------|
|-----------------|-----2-----2-----|-----2-----2-----|------------------|
|-----2-----2-----|---4-----4---4---|---4-----4---4---|-----2-----2------|
|---4-----4---4---|-2-----3-------3-|-2-----3-------3-|---4-----4---4----|
|-2-----3-------3-|-----------------|-----------------|-2-----3-------3--|


  E E E E E E E E   E E E E E E E E   E E E E E E E E
|-----------------|-----------------|-----------------|
|-----------------|-----------------|-----------------|
|-----------------|-----0-----0-----|-----2-----0-----|
|-----2-----2-----|---2-----2---2---|---2-----2---2---|
|---4-----4---4---|-4-----3-------3-|-4-----3-------3-|
|-2-----3-------3-|-----------------|-----------------|


  E E E E E E E E   E E E E E E E E   E E E E E E E E
|-----------------|-----------------|-----------------|
|-----------------|-----------------|-----------------|
|-----2-----0-----|-----------------|-----0-----0-----|
|---2-----2---2---|-----2-----2-----|---2-----2---2---|
|-4-----3-------3-|---2-----3---3---|-4-----3-------3-|
|-----------------|-4-----5-------5-|-----------------|


                                            Am
                                     6/4
  E E E E E E E E   E E E E E E E E   E E E E +W
|-----------------|-----------------|----------------||
|-----------------|-----------------|----------------||
|-----2-----0-----|-----2-----0-----|----------------||
|---2-----2---2---|---2-----2---2---|-----2-2-(2)----||
|-4-----3-------3-|-4-----3-------3-|---2---3-(3)----||
|-----------------|-----------------|-4-----5-(5)----||


 Pre-Chorus
  1.
 4/4
  Gtr I
  E  E E   E   E  E E E     E  E E E  E   E     E     E
|-----------------------|-------------------------------|
|-----------------------|-------------------------------|
|-----------------------|-------------------------------|
|------2----------2-----|--------2--------2-------------|
|----4---------4----4---|------4------4---------4-------|
|-2--------3----------3-|---2------3------------------3-|
|
| Gtr II
|                                     \1/   \1/   \1/
|              ~~~~~~~~~~~~~~~~
|                                     |-----3-----|
| Q.       E  +H           +H         Q     Q     Q
|-----------------------|-------------------------------|
|-----------------------|-------------------------------|
|--------/11-(11)-------|-(11)-------11-----9-----8-----|
|-----------------------|-------------------------------|
|-----------------------|-------------------------------|
|-----------------------|-------------------------------|


  E    E E E  E  E E  E     E  E E E  E  E  E  E
|------------------------|-----------------------||
|------------------------|-----------------------||
|------------------------|-----------------------||
|--------2-------2-------|-------2-------2-------||
|------4------4----4-----|-----4------4-----4----||
|-2--------3----------3--|--2------3-----------3-||
|
| \0.5                                \2
|                           ~~~~~~~~~~~~~
| Q      E E +Q.      E    +H        +Q    +Q
|------------------------|-----------------------||
|------------------------|-----------------------||
|-7------6-6-(6)-----[6]-|-(6)-------(6)---(6)---||
|------------------------|-----------------------||
|------------------------|-----------------------||
|------------------------|-----------------------||


 Chorus
  $
  E5F#5    E5F#5  F#5 E5F#5  F#Cm    Bm A5
  Gtr II
  S S Q  E S S Q  E   S S Q  E E +S  E. E
|-------------------|---------------------|
|-------------------|---------------------|
|-------------------|---------------------|
|-------------------|----------1-(1)-0--2-|
|-2-4------2-4----4-|-2-4----4-3-(3)-2--0-|
|-0-2------0-2----2-|-0-2----2------------|


  E5F#5    E5F#5  F#5 E5F#5  F#Cm    Bm A5
  S S Q  E S S Q  E   S S Q  E E +S  E. E
|-------------------|---------------------|
|-------------------|---------------------|
|-------------------|---------------------|
|-------------------|----------1-(1)-0--2-|
|-2-4------2-4----4-|-2-4----4-3-(3)-2--0-|
|-0-2------0-2----2-|-0-2----2------------|


  E5F#5    E5F#5      E5F#5  F#Cm    Bm A5
  S S Q  E S S Q.     S S Q  E E +S  E. E
|-------------------|---------------------|
|-------------------|---------------------|
|-------------------|---------------------|
|-------------------|----------1-(1)-0--2-|
|-2-4------2-4------|-2-4----4-3-(3)-2--0-|
|-0-2------0-2------|-0-2----2------------|


                                 To Coda
  E5F#5    E5F#5      E5F#5  F#Cm    Bm A5
  S S Q  E S S Q.     S S Q  E E +S  E. E
|-------------------|---------------------||
|-------------------|---------------------||
|-------------------|---------------------||
|-------------------|----------1-(1)-0--2-||
|-2-4------2-4------|-2-4----4-3-(3)-2--0-||
|-0-2------0-2------|-0-2----2------------||


  W                 +W
|-----------------|-------------------|
|-----------------|-------------------|
|-----------------|-------------------|
|-----------------|-------------------|
|-4---------------|-(4)---------------|
|-2---------------|-(2)---------------|
|
| Gtr I
| E E E E E E E E    E  E E E E E E E
|-----------------|-------------------|
|-----------------|-------------------|
|-----------------|-------------------|
|-----2-----2-----|-------2-----2-----|
|---4-----4---4---|-----4-----4---4---|
|-2-----3-------3-|--2------3-------3-|


   >
  +W                  +W
|-------------------|---------------------||
|-------------------|--------------------o||
|-------------------|---------------------||
|-------------------|---------------------||
|-(4)---------------|-(4)----------------o||
|-(2)---------------|-(2)-----------------||
|
|  E  E E E E E E E    E  E E E E E E E
|-------------------|---------------------||
|-------------------|--------------------o||
|-------------------|---------------------||
|-------2-----2-----|-------2-----2-------||
|-----4-----4---4---|-----4-----4---4----o||
|--2------3-------3-|--2------3-------3---||


 Pre-Chorus II
  2.
                ~~~~~~~~~~~~~~~~
  Q.     a  E  +H           +H         +E  S  S  E  E
|------------------------|----------------------------|
|------------------------|----------------------10-12-|
|--------9h11-(11)-------|-(11)-------(11)-9h11-------|
|------------------------|----------------------------|
|------------------------|----------------------------|
|------------------------|----------------------------|
|
| E  E E    E   E  E E E     E  E E E   E  E     E  E
|------------------------|----------------------------|
|------------------------|----------------------------|
|------------------------|----------------------------|
|------2-----------2-----|--------2--------2----------|
|----4----------4----4---|------4-------4--------4----|
|-2---------3----------3-|---2------3---------------3-|


                                                                            D.S. al Coda
                                                                    ~~~~~~~~~~~~~~~~~~~~
   S     +S   E E  S     +S   E E  S     +S   S.  T    +E   E      +Q.      +Q     +E
|---------------------------------------------------|------12b14==(12)-----(12)---(12)r---||
|-12b14r(12)-10---12b14r(12)-10---12b14r(12)-10-----|-------------------------------------||
|------------------------------------------------11-|-(11)--------------------------------||
|---------------------------------------------------|-------------------------------------||
|---------------------------------------------------|-------------------------------------||
|---------------------------------------------------|-------------------------------------||
|
|  E          E E  E          E E  E          E         E   E       E  E E   E  E   E
|---------------------------------------------------|-------------------------------------||
|---------------------------------------------------|-------------------------------------||
|---------------------------------------------------|-------------------------------------||
|---------------2---------------2-------------------|---------------2--------2------------||
|-------------4---------------4----4----------------|-------4------------4------4---------||
|--2---------------3--------------------------3-----|---2--------------3------------3-----||


    &
    PM--|   PM|     PM---------------
    S S S S S S S S S S S S S S S S
||----------------------------------|
||o---------------------------------|
||----------------------------------|
||--------------4-------------------|
||o-------4-------4-----------------|
||--0-2-2---2-2-----5-2-3-4-5-2-3-5-|


                          G5
 -----|   PM|     PM----|      PM--|   PM|     PM------------|
  S S S S S S S S S S S S Q    S S S S S S S S S S S S S S S S
|----------------------------|----------------------------------|
|----------------------------|----------------------------------|
|----------------------------|----------------------------------|
|-------------4--------------|-------------4--------------------|
|-------4-------4---------5--|-------4-------4------------------|
|-0-2-2---2-2-----5-2-3-5-3--|-0-2-2---2-2-----5-2-3-4-5-2-3-5--|


                  F5F#G5G#A5Bb5      B5
                                    6/4               4/4
                                                        \1
  PM--|   PM|     PM--------|
                  |-3-| |-3-|
  S S S S S S S S E E E E E E        H    +W           +W
|------------------------------||-||-----------------|--------||
|-----------------------------o||-||-----------------|--------||
|------------------------------||-||-----------------|--------||
|-------------4----------------||-||-----------------|--------||
|-------4-------4-3-4-5-6-7-8-o||-||-9----(9)--------|-(9)----||
|-0-2-2---2-2-----1-2-3-4-5-6--||-||-7----(7)--------|-(7)----||


    F5G5  F5G5  F5G5    F5G5  F5G#5 F5  G5  F5G5  F5G5
    PM------------------------------------------------|
    E E E E E E E E   E E E E E E E E   E E E E E E E E
||------------------|-----------------|-----------------|
||o-----------------|-----------------|-----------------|
||------------------|-----------------|-----------------|
||------------------|-----------------|-----------------|
||o-3-5---3-5---3-5-|---3-5---3-6---3-|-5---3-5---3-5---|
||--1-3---1-3---1-3-|---1-3---1-4---1-|-3---1-3---1-3---|


  1.,2.,3.        4.
  F5G#5 F5F5       F5G#5 F5F5
                  6/4                4/4
                                       \1
  PM----|          PM----|
  E E E E H     4x E E E E W          +W
|---------------||------------------|--------||
|--------------o||------------------|--------||
|---------------||------------------|--------||
|---------------||------------------|--------||
|-3-6---3-3----o||-3-6---3-3--------|-(3)----||
|-1-4---1-1-----||-1-4---1-1--------|-(1)----||


  Gtr II
  W                 W                 W                 W
|-----------------|-----------------|-----------------|------------------||
|-----------------|-----------------|-----------------|------------------||
|-----------------|-----------------|-----------------|------------------||
|-----------------|-----------------|-----------------|------------------||
|-----------------|-----------------|-----------------|------------------||
|-----------------|-----------------|-----------------|------------------||
|
| Gtr I
| E E E E E E E E   E E E E E E E E   E E E E E E E E   E E E E E E E E
|-----------------|-----------------|-----------------|------------------||
|-----------------|-----------------|-----------------|------------------||
|-----------------|-----------------|-----------------|------------------||
|-----2-----2-----|-----2-----2-----|-----2-----2-----|-----2-----2------||
|---4-----4---4---|---4-----4---4---|---4-----4---4---|---4-----4---4----||
|-2-----3-------3-|-2-----3-------3-|-2-----3-------3-|-2-----3-------3--||


 Guitar Solo
           ~~~~
                                                         |-------3-------|
   a      +W                   +E    E      +E    E      E      E        E      S      S      S     +S
|---------------------------|---------------------------------------------------------------------------|
|-12b14==(12)---------------|-(12)r-12b14==(12)r-12pb14-12pb14-12pb14---12pb14-12pb14-12pb14-12b14r(12)-|
|---------------------------|---------------------------------------------------------------------------|
|---------------------------|---------------------------------------------------------------------------|
|---------------------------|---------------------------------------------------------------------------|
|---------------------------|---------------------------------------------------------------------------|
|
|          E  E E E E E E E     E    E       E    E      E            E         E             E
|---------------------------|---------------------------------------------------------------------------|
|---------------------------|---------------------------------------------------------------------------|
|---------------------------|---------------------------------------------------------------------------|
|---------------2-----2-----|----------------2------------------------2---------------------------------|
|-------------4-----4---4---|--------4-------------------4----------------------4-----------------------|
|----------2------3-------3-|---2-----------------3-------------------------------------------3---------|


                <       <            <
   ~~
   Q    +Q      Q    E  E    +E   E  Q    H
|-------------------------|------------------------||
|-10---(10)\---10\-----10-|-(10)\---10\------------||
|-------------------------|------------------------||
|-------------------------|------------------------||
|-------------------------|------------------------||
|-------------------------|------------------------||
|
|  E E   E   E  E  E E  E     E   E  E  E E E E E
|-------------------------|------------------------||
|-------------------------|------------------------||
|-------------------------|------------------------||
|--------2---------2------|----------2------2------||
|----4----------4----4----|-------4-------4---4----||
|--2---------3----------3-|---2---------3-------3--||


                                                                         |--3---|
   E      +E   +E   +E   +E   +E    E      +E     E      +E        +E   +S   S  S  S  E        +S   +Q
|-19b21==(19)-(19)-(19)-(19)-(19)r-19pb21r(19)-|-19pb21-(19)pb21==(19)r(19)-17----19----------------------|
|----------------------------------------------|-------------------------------19----19b22====(19)-(19)---|
|----------------------------------------------|----------------------------------------------------------|
|----------------------------------------------|----------------------------------------------------------|
|----------------------------------------------|----------------------------------------------------------|
|----------------------------------------------|----------------------------------------------------------|
|
|  E       E    E    E    E    E    E       E     E       E         E    E         E        E        E  E
|----------------------------------------------|----------------------------------------------------------|
|----------------------------------------------|----------------------------------------------------------|
|---------------2--------------2---------------|--------------------2-----------------------2-------------|
|----------4--------------4---------4----------|----------4------------------------4-----------------4----|
|--2-----------------3----------------------3--|--2----------------------3------------------------------3-|
|----------------------------------------------|----------------------------------------------------------|


                                                      ~~~~~~~~~~~
               |---3---|                    |--3--|
   +E.    +S   E  E    E  H          +Q     S  S  S  +Q     +Q.
|---------------------------------|------------------------------------|
|-(19)r==(19)-17-19------19-------|-(19)-------------------------------|
|---------------------18----------|--------14h16p14-(14)---(14)\-------|
|---------------------------------|------------------------------------|
|---------------------------------|------------------------------------|
|---------------------------------|------------------------------------|
|
|   E  E       E    E     E E E E     E  E  E         E  E   E   E E
|---------------------------------|------------------------------------|
|---------------------------------|------------------------------------|
|---------------------------------|------------------------------------|
|--------------2------------2-----|---------2----------------2---------|
|------4------------------4---4---|------4---------------4-------4-----|
|---2---------------3-----------3-|---2---------------3------------3---|

[ Tab from: http://www.guitartabs.cc/tabs/p/pantera/this_love_tab_ver_4.html ]
   Q.      E  E  S      +S    E  E    E      +Q     +E    S  S  E       +E   S  S
|----------------------------------|------------------------17-17b18.5r(17)-------|
|-18------17-15--------------15----|-15b17==(15)---(15)r-18-----------------18-17-|
|---------------17b19==(17)r----17-|----------------------------------------------|
|----------------------------------|----------------------------------------------|
|----------------------------------|----------------------------------------------|
|----------------------------------|----------------------------------------------|
|
|  E  E E  E  E  E            E  E    E       E  E   E    E     E        E   E
|----------------------------------|----------------------------------------------|
|----------------------------------|----------------------------------------------|
|-------2--------2-----------------|-------------2--------------2-----------------|
|-----3-------3---------------3----|----------3-----------3--------------3--------|
|--5-------4---------------------4-|--3--------------2-----------------------2----|
|----------------------------------|----------------------------------------------|


   ~~                                                     ~~~~
   Q    E  Q    E      +Q       +E   +E     E       +E   +H
|----------------------------|-------------------------------------|
|------18------15b17==(15)---|-(15)-(15)r-[15]b17==(15)r(15)-------|
|-15------14-----------------|-------------------------------------|
|----------------------------|-------------------------------------|
|----------------------------|-------------------------------------|
|----------------------------|-------------------------------------|
|
|  E E  E  E E  E       E  E     E    E     E        E    E  E E E
|----------------------------|-------------------------------------|
|----------------------------|-------------------------------------|
|-------2-------2------------|--------------2----------------2-----|
|----3-------3----------3----|--------3-------------------3----3---|
|--5-------4---------------4-|---3-------------------2-----------2-|
|----------------------------|-------------------------------------|


                ~~~
                             |--3--| |--3--|
  Q.     S S E +E.   S S S   E E   E E E   E E E S S E
|--------------------------|---------------------------|
|--------------------------|---------------------------|
|-2------------------------|---------------------------|
|--------4-2-4-(4)---2-----|-2-------------------2h4-2-|
|----------------------2h4-|---4---3-2-----------------|
|--------------------------|-----------4---3-2-0-------|
|
| E  E E E   E  E  E   E     E   E   E   E   E E E   E
|--------------------------|---------------------------|
|--------------------------|---------------------------|
|--------------------------|---------------------------|
|------2--------2----------|---------2---------2-------|
|----4-------4-----4-------|-----4-----------4---4-----|
|-2------3-------------3---|-2-----------3-----------3-|


                                \2                |
  E S S E S S S S E S S S S   E H.           +S  +S
|---------------------------|-------------------------||
|---------------------------|-------------------------||
|---------------------------|-------------------------||
|---2h4-2-----2h4-2---------|-------------------------||
|---------------------------|---0------------(0)-(0)--||
|-2-------2-2-------2-2-2-2-|-2-----------------------||
|
| E E   E E   E   E E   E     E E  E E E E E  E
|---------------------------|-------------------------||
|---------------------------|-------------------------||
|---------------------------|-------------------------||
|-------2---------2---------|------2-----2------------||
|---4---------4-----4-------|---4------4---4----------||
|-2-------3-------------3---|-2------3--------3-------||


 Chorus III
  E5F#5    E5F#5  F#5 E5F#5  F#Cm    Bm A5
  S S Q  E S S Q  E   S S Q  E E +S  E. E
|-------------------|---------------------|
|-------------------|---------------------|
|-------------------|---------------------|
|-------------------|----------1-(1)-0--2-|
|-2-4------2-4----4-|-2-4----4-3-(3)-2--0-|
|-0-2------0-2----2-|-0-2----2------------|


  E5F#5    E5F#5  F#5 E5F#5  F#Cm    Bm A5
  S S Q  E S S Q  E   S S Q  E E +S  E. E
|-------------------|---------------------|
|-------------------|---------------------|
|-------------------|---------------------|
|-------------------|----------1-(1)-0--2-|
|-2-4------2-4----4-|-2-4----4-3-(3)-2--0-|
|-0-2------0-2----2-|-0-2----2------------|


  E5F#5    E5F#5      E5F#5  F#Cm    Bm A5
  S S Q  E S S Q.     S S Q  E E +S  E. E
|-------------------|---------------------|
|-------------------|---------------------|
|-------------------|---------------------|
|-------------------|----------1-(1)-0--2-|
|-2-4------2-4------|-2-4----4-3-(3)-2--0-|
|-0-2------0-2------|-0-2----2------------|


                                 To Coda
  E5F#5    E5F#5      E5F#5  F#Cm    Bm A5
  S S Q  E S S Q.     S S Q  E E +S  E. E
|-------------------|---------------------||
|-------------------|---------------------||
|-------------------|---------------------||
|-------------------|----------1-(1)-0--2-||
|-2-4------2-4------|-2-4----4-3-(3)-2--0-||
|-0-2------0-2------|-0-2----2------------||


    F5G5  F5G5  F5G5  F5G5  F5G#5 F5  G5  F5G5  F5G5  F5G#5 F5F5
    PM------------------------------------------------------|
    S S S S S S S S S S S S S S S S   S S S S S S S S S S S S Q    4x
||----------------------------------|------------------------------||
||o---------------------------------|-----------------------------o||
||----------------------------------|------------------------------||
||----------------------------------|------------------------------||
||o-3-5---3-5---3-5---3-5---3-6---3-|-5---3-5---3-5---3-6---3-3---o||
||--1-3---1-3---1-3---1-3---1-4---1-|-3---1-3---1-3---1-4---1-1----||


  B5   E5     F5   C5       F5G5  F5G5  F5G5    F5G5  F5G#5 F5
                            PM------------------------------|
  H    H      H    H        E E E E E E E E   E E E E E E E E
|-----------|-----------||------------------|------------------|
|-----------|-----------||o-----------------|------------------|
|-----------|-----------||------------------|------------------|
|-4---------|------5----||------------------|------------------|
|-2----2----|-3----3----||o-3-5---3-5---3-5-|---3-5---3-6---3--|
|------0----|-1---------||--1-3---1-3---1-3-|---1-3---1-4---1--|


  G5  F5G5  F5G5    F5G#5 F5F5       F5G5  F5G5  F5G5    F5G5  F5G#5 F5
  PM----------------------|          PM------------------------------|
  E E E E E E E E   E E E E H     4x E E E E E E E E   E E E E E E E E
|-----------------|---------------||-----------------|------------------|
|-----------------|--------------o||-----------------|------------------|
|-----------------|---------------||-----------------|------------------|
|-----------------|---------------||-----------------|------------------|
|-5---3-5---3-5---|-3-6---3-3----o||-3-5---3-5---3-5-|---3-5---3-6---3--|
|-3---1-3---1-3---|-1-4---1-1-----||-1-3---1-3---1-3-|---1-3---1-4---1--|


  G5  F5G5     F5G5    F5G#5 F5F5
        > >
  PM-------------------------|
  E E E S E.   E E E   E E E E H
|--------------------|-----------------||
|--------------------|-----------------||
|--------------------|-----------------||
|--------------------|-----------------||
|-5---3-5------3-5---|-3-6---3---------||
|-3---1-3------1-3---|-1-4---1---------||
|
| Gtr I
| <
| E E E E    E E E E   E E E E E E E E
|--------------------|-----------------||
|--------------------|-----------------||
|--------------------|-----------------||
|-----2--------2-----|-----2-----2-----||
|---4--------4---4---|---4-----4---4---||
|-2-----3----------3-|-2-----3-------3-||


 Outro Solo
    ~~~~~~~~~~~~~~~~~~~~~~~
    W                  +W
|-------------------|--------------------|
|-------------------|--------------------|
|-/11---------------|-(11)---------------|
|-------------------|--------------------|
|-------------------|--------------------|
|-------------------|--------------------|
|
|   E E E E E E E E     E  E E E E E E E
|-------------------|--------------------|
|-------------------|--------------------|
|-------------------|--------------------|
|-------2-----2-----|--------2-----2-----|
|-----4-----4---4---|------4-----4---4---|
|---2-----3-------3-|---2------3-------3-|


    ~~~~~~~~~~~~~~~~~~~~~~~~
                                                |-----3-----|
   +W                   +H         E      +E    E     +E    E
|--------------------|----------------------------------------|
|--------------------|----------------------------------------|
|-(11)---------------|-(11)-------11b13==(11)r-11b13r(11)---9-|
|--------------------|----------------------------------------|
|--------------------|----------------------------------------|
|--------------------|----------------------------------------|
|
|   E  E E E E E E E     E  E E E  E       E    E         E
|--------------------|----------------------------------------|
|--------------------|----------------------------------------|
|--------------------|----------------------------------------|
|--------2-----2-----|--------2------------2------------------|
|------4-----4---4---|------4------4------------4-------------|
|---2------3-------3-|---2------3-------------------------3---|


               ~~~~~~~~~~~~~~~~
   Q    E  E  +H           +W
|-----------------------|---------------------|
|-----------------------|---------------------|
|------11-11-(11)-------|-(11)----------------|
|-11--------------------|---------------------|
|-----------------------|---------------------|
|-----------------------|---------------------|
|
|  E E  E  E   E  E E E     E  E E E E E E E
|-----------------------|---------------------|
|-----------------------|---------------------|
|-----------------------|---------------------|
|-------2---------2-----|--------2-----2------|
|----4---------4----4---|------4-----4---4----|
|--2-------3----------3-|---2------3-------3--|


   H..              E    +W                   W
|---------------------|--------------------|------------------|
|-14---------------14-|-(14)---------------|------------------|
|---------------------|--------------------|-14---------------|
|---------------------|--------------------|------------------|
|---------------------|--------------------|------------------|
|---------------------|--------------------|------------------|
|
|  E   E E E E E E  E     E  E E E E E E E    E E E E E E E E
|---------------------|--------------------|------------------|
|---------------------|--------------------|------------------|
|---------------------|--------------------|------------------|
|--------2-----2------|--------2-----2-----|------2-----2-----|
|------4-----4---4----|------4-----4---4---|----4-----4---4---|
|--2-------3--------3-|---2------3-------3-|--2-----3-------3-|


                \1
                         |--------3--------|
   +Q     +E   +E   Q    S      +S    E    E
|--------------------------------------------|
|------------------------------------14---15-|
|-(14)---(14)-(14)-14---16b18==(16)r---------|
|--------------------------------------------|
|--------------------------------------------|
|--------------------------------------------|
|
|   E  E   E    E   E E  E              E
|--------------------------------------------|
|--------------------------------------------|
|--------------------------------------------|
|----------2----------2----------------------|
|------4------------4----4-------------------|
|---2-----------3-----------------------3----|


                             ~~~~~~~~~                                                      ~~~~~~~~~~~
                                                                   |-------3-------|
   E      +E   +E    S      +S   +H            S      +S    E      E      E        E       +Q     +Q
|-------------------------------------------|------------------------------------------------------------|
|-17b19==(17)-(17)r-17b19==(17)-(17)r-------|-17b19==(17)r-17pb19-17pb19-17pb19---17pb19==(17)---(17)r---|
|-------------------------------------------|------------------------------------------------------------|
|-------------------------------------------|------------------------------------------------------------|
|-------------------------------------------|------------------------------------------------------------|
|-------------------------------------------|------------------------------------------------------------|
|
|  E       E    E    E            E   E E E    E            E      E            E           E  E   E   E
|-------------------------------------------|------------------------------------------------------------|
|-------------------------------------------|------------------------------------------------------------|
|-------------------------------------------|------------------------------------------------------------|
|---------------2---------------------2-----|----------------------2---------------------------2---------|
|----------4----------------------4-----4---|---------------4-------------------------------4------4-----|
|--2-----------------3--------------------3-|--2--------------------------------3----------------------3-|


                         ~~~~
   E      +E   +E    E  +H           E      +E   +E    E      +E   +E    E      +E
|---------------------------------|-------------------------------------12-----(12)----|
|-17b19==(17)-(17)r-17-(17)-------|-14-----(14)-(14)--16-----(16)-(16)--15b17==(15)r---|
|---------------------------------|-16b18==(16)-(16)r-18b20==(18)-(18)r----------------|
|---------------------------------|----------------------------------------------------|
|---------------------------------|----------------------------------------------------|
|---------------------------------|----------------------------------------------------|
|
|  E       E    E    E   E  E E E    E       E    E    E       E    E    E       E
|---------------------------------|----------------------------------------------------|
|---------------------------------|----------------------------------------------------|
|---------------------------------|----------------------------------------------------|
|---------------2-----------2-----|---------------2-----------------2------------------|
|----------4-------------4----4---|----------4-----------------4---------4-------------|
|--2-----------------3----------3-|--2-----------------3-------------------------3-----|


   E      +H..                +E    E      +E    E  s      S  s      S  E      S  S
|-14-----(14)--------------|-(14)--17b19==(17)r-17-17pb19-17-17pb19-17-17pb19-17-14-|
|-17b19==(17)--------------|-(17)r--------------------------------------------------|
|--------------------------|--------------------------------------------------------|
|--------------------------|--------------------------------------------------------|
|--------------------------|--------------------------------------------------------|
|--------------------------|--------------------------------------------------------|
|
|  E       E   E E E E E E     E    E       E    E  E         E         E      E
|--------------------------|--------------------------------------------------------|
|--------------------------|--------------------------------------------------------|
|--------------------------|--------------------------------------------------------|
|--------------2-----2-----|----------------2-----------------2---------------------|
|----------4-------4---4---|--------4---------------4-------------------4-----------|
|--2-------------3-------3-|---2-----------------3-----------------------------3----|


   E      +H..                +E    E      +E    E  S  S  S  S  S      +S    S  S
|--------------------------|-------17b19==(17)r-17-21-20-19-17-19b21==(19)r-19-17--|
|-17b19==(17)--------------|-(17)r-------------------------------------------------|
|--------------------------|-------------------------------------------------------|
|--------------------------|-------------------------------------------------------|
|--------------------------|-------------------------------------------------------|
|--------------------------|-------------------------------------------------------|
|
|  E       E   E E E E E E     E    E       E    E  E     E     E            E
|--------------------------|-------------------------------------------------------|
|--------------------------|-------------------------------------------------------|
|--------------------------|-------------------------------------------------------|
|--------------2-----2-----|----------------2-------------2------------------------|
|----------4-------4---4---|--------4---------------4-----------4------------------|
|--2-------------3-------3-|---2-----------------3---------------------------3-----|


           ~~~~~~~~~~~~~~~~~~~~~~~~~~~~~~~~~~~~~~~~~~
   E      +H..                +H..              +E
|--------------------------|-------------------------|
|-19b21==(19)--------------|-(19)--------------(19)r-|
|--------------------------|-------------------------|
|--------------------------|-------------------------|
|--------------------------|-------------------------|
|--------------------------|-------------------------|
|
|  E       E   E E E E E E     E   E E E E E E   E
|--------------------------|-------------------------|
|--------------------------|-------------------------|
|--------------------------|-------------------------|
|--------------2-----2-----|---------2-----2---------|
|----------4-------4---4---|-------4-----4---4-------|
|--2-------------3-------3-|---2-------3---------3---|


   E      +E   +E    E       +E   +E   E      +E     +E   +E    E     +E   E      +E   +E    E
|-21b23==(21)-(21)r-21pb23==(21)r(21)-21b23==(21)-|-(21)-(21)r-21b23r(21)-21b23==(21)-(21)r-21pb23===|
|-------------------------------------------------|--------------------------------------------------|
|-------------------------------------------------|--------------------------------------------------|
|-------------------------------------------------|--------------------------------------------------|
|-------------------------------------------------|--------------------------------------------------|
|-------------------------------------------------|--------------------------------------------------|
|
|  E       E    E    E        E    E   E       E      E    E    E      E   E       E    E    E
|-------------------------------------------------|--------------------------------------------------|
|-------------------------------------------------|--------------------------------------------------|
|-------------------------------------------------|--------------------------------------------------|
|---------------2------------------2--------------|-------------2------------------2-----------------|
|----------4------------------4--------4----------|--------4---------------4------------4------------|
|--2-----------------3-------------------------3--|---2----------------3---------------------3-------|


   +E    E      +E   +E    Q         +E   +E
|-(21)r-21b23==(21)-(21)r-21pb23====(21)-(21)r-|
|----------------------------------------------|
|----------------------------------------------|
|----------------------------------------------|
|----------------------------------------------|
|----------------------------------------------|
|
|   E    E       E    E    E      E   E    E
|----------------------------------------------|
|----------------------------------------------|
|----------------------------------------------|
|----------------2----------------2------------|
|--------4-----------------4----------4--------|
|---2-----------------3--------------------3---|


                              ~~~~~~~~~~~~~~~~~~~~~~~~
   H..                +E     +W                   +W
|-20b26==============(20)-|-(20)---------------|-(20)----------------|
|-------------------------|--------------------|---------------------|
|-------------------------|--------------------|---------------------|
|-------------------------|--------------------|---------------------|
|-------------------------|--------------------|---------------------|
|-------------------------|--------------------|---------------------|
|
|  E     E E E E E E   E      E  E E E E E E E     E  E E E E E E E
|-------------------------|--------------------|---------------------|
|-------------------------|--------------------|---------------------|
|-------------------------|--------------------|---------------------|
|----------2-----2--------|--------2-----2-----|--------2-----2------|
|--------4-----4---4------|------4-----4---4---|------4-----4---4----|
|--2---------3---------3--|---2------3-------3-|---2------3-------3--|


    ~~~~~~~~~~~~~~~~~~~~~~~~~
   +W                   +H..              +E
|-(20)---------------|-(20)--------------(20)r-*|
|--------------------|-------------------------*|
|--------------------|-------------------------*|
|--------------------|-------------------------*|
|--------------------|-------------------------*|
|--------------------|-------------------------*|
|
|   E  E E E E E E E     E   E E E E E E   E
|--------------------|-------------------------*|
|--------------------|-------------------------*|
|--------------------|-------------------------*|
|--------2-----2-----|---------2-----2---------*|
|------4-----4---4---|-------4-----4---4-------*|
|---2------3-------3-|---2-------3---------3---*|
Comments