Pantera - The Art Of Shredding Chords & Tabs

 

The Art Of Shredding Chords & Tabs

Pantera Chords & Tabs

Version: 3 Type: Tab 0 ratings
1 star 2 stars 3 stars 4 stars 5 stars
comments

The Art Of Shredding Tab

The Art Of Shredding
                                  by Pantera
Tuned 1/2 step down?

E[----------------------------------------] 
B[----------------------------------------]
G[----------------------------------------] 
D[-------4--2-----------------------------]
A[-------------5--4--2-----0--3-----------]
E[-0--2-----------------3--------4~~~-----]

E[------------------------------------------------------]
B[------------------------------------------------------]
G[------------------------------------------------------]
D[-4-----4-----2-----2----------------------------------]
A[----2-----2-----2-----2---5-5-4--5-5-4--5-5-4--2--0---]
E[------------------------------------------------------]

E[--------------------------------------------------------------------------]
B[--------------------------------------------------------------------------]
G[--------------------------------------------------------------------------]
D[--------------------------------------------------------------------------]
A[----4-----4---------------------------------------------------------------]
E[-2-----2-----0--2--0--2---5-5-4--5-5-4--5-5-4--2--0-----------------------]

E[--------------------------------------------------------------------------]
B[--------------------------------------------------------------------------]
G[--------------------------------------------------------------------------]
D[-6-----6-----7-----7-----6-----6-----7-----7-----6---6-6--6-6--6-6--6-6-6-]
A[----4-----4-----4-----4-----4-----4-----4-----4--4---4-4--4-4--4-4--4-4-4-]
E[--------------------------------------------------------------------------]
[ Tab from: http://www.guitartabs.cc/tabs/p/pantera/the_art_of_shredding_tab_ver_3.html ]
E[-----------------------------------------]  E[----------------------------]
B[-----------------------------------------]  B[----------------------------]
G[*---------------------------------------*]  G[----------------------------]
D[*-----------------------------8\7-------*]  D[--3--3/4--4\3---------------]
A[------5---8-----7---10----8---6\5--------]  A[--1--1/2--2\4---------------]
E[--0-0-3-0-6-0-0-5-0-8-0-0-6-0------------]  E[----------------------------]

Verse
E[--------------------------------------------------------------------------]
B[--------------------------------------------------------------------------]
G[*-------------------------------------------------------------------------]
D[*2-2-2------------------------------------------------2-------------------]
A[-2-2-2------------------------4/6---------------------2-------------------]
E[-0-0-0-----0-0-0-0-0-0-0-0-0--2/4--4-4-4-4-4-4-4-4-4--0---0-0-0-0-0-0-0---]

E[----------------------]
B[----------------------]
G[---------------------*]
D[--3--3/4--4\3--3/4---*]
A[--1--1/2--2\1--1/2----]
E[----------------------]

E[-------------------------------------------------------------]
B[-------------------------------------------------------------]
G[*------------------------------------------------------------]
D[*-3\2--3\1--3\2----------------3\2--3\1--3\3-----------------]
A[--1\0--1\0--1\2---2-2-2-2-2-2--1\0--1\0--1\3---3-3-3-3-3-3---]
E[--------------0---0-0-0-0-0-0--------------1---1-1-1-1-1-1---]

E[----------------------------------------------]
B[----------------------------------------------]
G[---------------------------------------------*]
D[---------------------------------------------*]
A[-3\2--3\2--3/5---5-5-5-5-5--4--4-4--3--3-3-3--]
E[-1\0--1\0--1/3---3-3-3-3-3--2--2-2--1--1-1-1--]
Comments