Pantera - Suicide Note Part Chords & Tabs

 

Suicide Note Part Chords & Tabs

Pantera Chords & Tabs

Version: 1 Type: Tab 0 ratings
1 star 2 stars 3 stars 4 stars 5 stars
comments

Suicide Note Part Tab

   

Author/Artist: Pantera
Title: Suicide note 2
Album: The great southern trendkill
Transcribed by: Marty
Email: knotterfan@hotmail.com

For this song you need a digitech whammy pedal or other
similar pitch shifter. Set it to 2 octave setting and
depress as shown. Listen to the cd and you will work it
out.
Also note that the tuning in this song is one whole
step down that is (D-G-C-F-A-D)

Cheers this song fuckin rocks
Whammy Pedal=
*^ = press pedal down
*v = release pedal(ease foot off)


Riff 1
-----------------------6*^v---6*^v--6*^v--------------------------------------
------------------------------------------------------------------------------
------------------------------------------------------------------------------
------------------------------------------------------------------------------
------------------------------------------------------------------------------
----000000000000000-----------------------------------------------------------
 PM ---------------


Riff 2 (for this riff just press down on the whammy pedal and play the (6)
4 times)
-------------------*^6--6--6--6-----------------------------------------------
------------------------------------------------------------------------------
------------------------------------------------------------------------------
------------------------------------------------------------------------------
------------------------------------------------------------------------------
----000000000000000-----------------------------------------------------------
 PM ---------------


Riff 3
-------------------------------|----------------------------------------------
-------------------------------|----------------------------------------------
-------------------------------|----------------------------------------------
-------------5p2---5p2---5p2---|----------------------------------------------
-2-----------5p2---5p2---5p2---|---5-------9---8------------------------------
-0--0-0-0-0--------------------|---3-------7---6------------------------------
    - - - -           1,2,3      4th time

[ Tab from: http://www.guitartabs.cc/tabs/p/pantera/suicide_note_part_tab.html ]
Riff4
-------------------------------|----------------------------------------------
-------------------------------|----------------------------------------------
-------------------------------|----------------------------------------------
-------------------------------|----------------------------------------------
-------3-2-----------5/7/9-----|----------------------------------------------
--0-0--1-0--0-0-0-0--3/5/7-----|---0-0--8p7--6p5-\-//-------------------------
  - -       - - - -     1,2,3    4th time

The solo is just some crazy shit with the whammy pedal... so if u have a whammy
pedal then just improvise some shit with it. It all sounds the same in the end
cos the solo 's kinda weird neway..good luck


Riff 5 (this is the slow bit "de-scen-ding DOWN..etc")
-----------|-------------------6*^v---6*^v---6*^v---6^v-----------------------
-----------|------------------------------------------------------------------
-----------|------------------------------------------------------------------
-----------|------------------------------------------------------------------
-----------|------------------------------------------------------------------
----11\0---|--0---0---0---0---------------------------------------------------



Riff 6 ( after about eight times or so the second part of the riff changes
this can be worked out pretty easily so i didnt bother tabing it)

-------------------6*^v---6*^v---6*^v----6*^v---------------------------------
------------------------------------------------------------------------------
------------------------------------------------------------------------------
------------------------------------------------------------------------------
--2---2---2---2---------------------------------------------------------------
--0---0---0---0---------------------------------------------------------------
  -   -   -   -

Outro thing (this is the short outro at the end, its pretty close but im not
100% sure. ...)
------------------------------------------------------------------------------
------------------------------------------------------------------------------
------------------------------------------------------------------------------
------------------------------------------------------------------------------
--2-4--4--4-2-----------------------------------------------------------------
--0-2--2--2-0---------------------------------------------------------
Comments