Pantera - Suicide Note Part 2 Chords & Tabs

 

Suicide Note Part 2 Chords & Tabs

Pantera Chords & Tabs

Version: 2 Type: Tab 0 ratings
1 star 2 stars 3 stars 4 stars 5 stars
comments

Suicide Note Part 2 Tab

   
PANTERA

Suicide Note Pt II

By Jean-Philippe Angers
jangers@infobahnos.com


* = Whammy pedal


Riff A
*    *    * *                  *    *    * *
|------------------6----6----6-6------------------6----6----6-6---|
|-----------------------------------------------------------------|
|-----------------------------------------------------------------|
|-----------------------------------------------------------------|
|-----------------------------------------------------------------|
|---00000000000--------------------00000000000--------------------|
Repeat 2x

Riff B
* * * * *                 * * * * *
|------------------6-6-6-6-6-----------------6-6-6-6-6------------|
|-----------------------------------------------------------------|
|-----------------------------------------------------------------|
|-----------------------------------------------------------------|
|-----------------------------------------------------------------|
|----00000000000---------------00000000000------------------------|
Repeat 2x

Riff C
[ Tab from: http://www.guitartabs.cc/tabs/p/pantera/suicide_note_part_2_tab_ver_2.html ]
|-----------------------------------------------------------------|
|-----------------------------------------------------------------|
|-----------------------------------------------------------------|
|-----------------------------------------------------------------|
|-0-----------3/5---3/5---3/5-----0-----------3/5---3/5---3/5-----|
|-0---0-0-0-0-3/5-0-3/5-0-3/5-0-0-0---0-0-0-0-3/5-0-3/5-0-3/5-----|
Repeat 2x

Riff D

|-----------------------------------------------------------------|
|-----------------------------------------------------------------|
|-----------------------------------------------------------------|
|-----------------------------------------------------------------|
|---5-----10-----3--------3-3--5----------------------------------|
|---5-----10-----3--------3-3--5----------------------------------|


Riff E

|------------------------------------------------------------------------|
|------------------------------------------------------------------------|
|------------------------------------------------------------------------|
|------------------------------------------------------------------------|
|-----------1----0------------3/5/8------------1----0------------3/5/6---|
|-0----0----1----0----0-0-0-0-3/5/8--0----0----1----0----0-0-0-0-3/5/6---|
*** I'm not sure of this!!!

The end of the song is like Riff B but very slow like

"chung chung chung chung wah wah wah wah"
Comments