Pantera - Slaughtered Chords & Tabs

 

Slaughtered Chords & Tabs

Pantera Chords & Tabs

Version: 1 Type: Tab 0 ratings
1 star 2 stars 3 stars 4 stars 5 stars
comments

Slaughtered Tab

#----------------------------------PLEASE NOTE---------------------------------#
#This file is the author's own work and represents their interpretation of the #
#song. You may only use this file for private study, scholarship, or research. #
#------------------------------------------------------------------------------#

  Visit MetalTabs.com for more metal tablature

Pantera
Slaughtered
Far Beyond Driven
Transcribed by Mike Kimball
[bloodmetalcontent@yahoo.com]
[geocities.com/bloodmetalcontent]

As with all guitar tablature, a mono-spaced font
(e.g. Courier or Monaco) is required to display properly...

Fig. 1
|-----------------------------------------------------
|-----------------------------------------------------
|--------/5-------------------------------------------
|--------/5---5---3-----3-------3---------------------
|--------/3---5---3-----3-------3---------------------
|--000000-----3---1-00001---00001---------------------


Fig. 1b
|-----------------------------------------------------
|-----------------------------------------------------
|--------/9-------------------------------------------
|--------/9---9---7-------5-------7-------------------
|--------/7---9---7-------5-------7-------------------
|--444444-----7---5---44443---44445-------------------

Repeat three times; but third time has different ending:
|-----------------------------------------------------
|-----------------------------------------------------
|--------/9-------------------------------------------
|--------/9---9---7-------5-------3-------------------
|--------/7---9---7-------5-------3-------------------
|--444444-----7---5---44443---44441-------------------

[ Tab from: http://www.guitartabs.cc/tabs/p/pantera/slaughtered_tab.html ]
Fig. 2
|--------------------------------------------|
|--------------------------------------------|
|--------------------------------------------|
|--------(5)/9---\5---/10--\6---/11--\7---3--|
|--------(5)/9---\5---/10--\6---/11--\7---3--|
|--000000(3)/7---\3---/8---\4---/9---\5---1--|


Fig. 3
|-----------------------------------|
|-----------------------------------|
|-----------------------------------|
|-------------------5--5--5--5--5-5-|
|-------------------5--5--5--5--5-5-|
|--000000000000000003-03-03-03-03-3-|


Fig. 4
|--------------------------0-----------------------
|--------------------------0-----------------------
|--------------------------------------------------
|--2-----------------------------------------------
|--2-----------------------------------------------
|--0-----------------------------------------------

|----------
|----------
|---3-3-3--
|---3-3-3--
|---1-1-1--
|--0-------


Fig. 5
|---------------------------------------------------
|---------------------------------------------------
|---------------------------------------------3-3-3-
|--2-2-2-2-2-2-2-2-2-2-2-2-2-2-2-2-2-2-2-2-2--3-3-3-
|--2-2-2-2-2-2-2-2-2-2-2-2-2-2-2-2-2-2-2-2-2--1-1-1-
|--0-0-0-0-0-0-0-0-0-0-0-0-0-0-0-0-0-0-0-0-0-0------

|------------------------------------------------------
|------------------------------------------------------
|------------------------------------------------3-3-3-
|--2-2-2-2-2-2----2-2-2-2-2-2----2-2-2-2-2----2--3-3-3-
|--2-2-2-2-2-2----2-2-2-2-2-2----2-2-2-2-2----2--1-1-1-
|--0-0-0-0-0-0-/7-0-0-0-0-0-0-/8-0-0-0-0-0-/9-0-0------


Fig. 6
|--------------------------------------------------
|--------------------------------------------------
|----------------------------------------------3-3-
|---3-4-2-3-----------------3-4-2-3------------3-3-
|-----------3-4-2-3-----2-3---------3-4-2-3----1-1-
|--1-1-1-1-1-1-1-1-10011-1-1-1-1-1-1-1-1-1-1000----

Comments