Pantera - Shedding Skin Chords & Tabs

 

Shedding Skin Chords & Tabs

Pantera Chords & Tabs

Version: 1 Type: Bass Tab 0 ratings
1 star 2 stars 3 stars 4 stars 5 stars
comments

Shedding Skin Bass Tab

                                       Bass Tab
song:shedding skin
album:Far Beyond Driven
tabbed by James Hamilton
email:   fucking_hostile@email.com

i have got loads more bass tabs so email me...

*  =  mute
/ and \ =slide
^ = bend note

i Am ThE bAsS kInG


INTRO
g---------------------------------------------------
d------------2-2----------------------2-2-----------
a--------2-3-----3-2--------------2-3-----3-2-------
e--0-0-3-------------3------0-0-3-------------3-----
							play 4 times
g---------------------------------------------------
d-----------2-2-------------------------------------
a-------2-3-----3-2----2-2---1-1---1-1---1-1---0-0--
e-0-0-3-------------3-----3-----3-----3-----2-----1-


VERSE
g--------------------------------------------------------
d-------------------------------------------------------- 
a--------------------------------------------------------
e-0------------------------------------------------------


g--------------------------------------------------------------
d--------------------------------------------------------------
a--------------------------------------------------------------
e--------------------------------------------------------------

g--------------11-12-----12-------------------
d--------10---------8-------7--5----(5)\------
a---9-10--------------------------------------
e---------------------------------------------

g---------------------------------------------------------------
d------------------------------4-5-----------5------------------
a-------------------3---------------1-------------0-------------
e-0----------2---3--------------------------------------3--(3^)-


Riff 1:
g-----------------------------------------------------------------
d-----------------------------------------------------------------
a-------------------7\---------------------------------7\---------
e-0-0-0-0-0-0-0-0-0----0-0-3/5-0---0-0-0-0-0-0-0-0-0----0-0-3/5-0-
									
                                                          play FoUr TiMeS
g-------------------------------------------------------
d------------------------------------------------------- 
a-------------------7\-------------2^--2^--2^--2^-------
e-0-0-0-0-0-0-0-0-0----0-0-3/5-0------------------3--0--

[ Tab from: http://www.guitartabs.cc/tabs/p/pantera/shedding_skin_btab.html ]
chorus:
g---------------------------------------------------
d------------2-2----------------------2-2-----------
a--------2-3-----3-2--------------2-3-----3-2-------
e--0-0-3-------------3------0-0-3-------------3-----
							play 4 times
g---------------------------------------------------
d-----------2-2-------------------------------------
a-------2-3-----3-2----2-2---1-1---1-1---1-1---0-0--
e-0-0-3-------------3-----3-----3-----3-----2-----1-


g--------------------------------------------------------
d-------------------------------------------------------- 
a--1-2-1----1-----1-------1-2-1----1-----1---------------  play 5 times
e---------3----3----0-3----------3----3----0-3-----------


VERSE 3

g-----------------------------
d-----------------------------    play 4 times
a---------7\------------------
e-0-0-0-0----0-1-1-1-1-1-1----

		then

g-------------------------------------
d----------4-------4------------------
a-------------------------------------    play 2 times
e-0-2-2-2-----2-2-----2-3-3-3-3-3-3---

g-----------------------------
d-----------------------------    play 2 times
a---------7\------------------
e-0-0-0-0----0-1-1-1-1-1-1----


Guitar solo 1:

g-----------------------------
d-----------------------------    play 4 times
a---------7\------------------
e-0-0-0-0----0-1-1-1-1-1-1----

		then

g-------------------------------------
d----------4-------4------------------
a-------------------------------------    play 2 times
e-0-2-2-2-----2-2-----2-3-3-3-3-3-3---

g-----------------------------
d-----------------------------    play 2 times
a---------7\------------------
e-0-0-0-0----0-1-1-1-1-1-1----

guitar solo 2:

g-----------------------------
d-----------------------------    play 4 times
a---------7\------------------
e-0-0-0-0----0-1-1-1-1-1-1----

		then

g-------------------------------------
d----------4-------4------------------
a-------------------------------------    play 2 times
e-0-2-2-2-----2-2-----2-3-3-3-3-3-3---

g-----------------------------
d-----------------------------    play 2 times
a---------7\------------------
e-0-0-0-0----0-1-1-1-1-1-1----

g------------*-*-
d------------*-*-
a------------*-*-     play    4 times
e-0-0-0-0-1--*-*-

g--------------------------------------------
d--------------------------------------------
a--------------------------------------------    play till end of song
e-0-0-0-0-1-1-1-1-0-0-0-0-0-0-0-0------------


thats it from me goodbye ill do some more tabs for you

Comments