Pantera - Rise Chords & Tabs

 

Rise Chords & Tabs

Pantera Chords & Tabs

Version: 3 Type: Tab 0 ratings
1 star 2 stars 3 stars 4 stars 5 stars
comments

Rise Tab

Song: Rise
Artist: Pantera
Album: Vulgar Display of Power

Tuned down 1/2 step
` = pinch harmonic
\\ = pick slide


Chorus
8 times 8 times 8 times
eb-----------------|-----------------|--------------------|
Bb-----------------|-----------------|--------------------|
Gb--------------5--|-----------------|--------------------|
Db--------------3--|-----------------|--------------7-----|
Ab-----------------|--------------5--|--------------5-----|
Eb--1m-1m-1m-1m----|--4m-4m-4m-4m-4--|--6m-6m-6m-6m-6-----|


(continued)
4 times
eb-----------------|--------------------------------------|
Bb-----------------|--------------------------------------|
Gb-----------------|--------------------------------------|
Db-----------------|--------------------------------------|
Ab--------------9--|--9----------9----------9-------------|
Eb--8m-8m-8m-8m-8--|--7-7m-7m-7m-8-8m-8m-8m-7-7m-7m-7m----|


(continued)
eb--------------------------------------------------------|
Bb--------------------------------------------------------|
Gb--------------------------------------------------------|
Db-------------------\\-----------------------------------|
Ab--9----------9-----\\-----------------------------------|
Eb--8-8m-8m-8m-7------------------------------------------|


Pre-Chorus
eb--------------------------------------------------------|
Bb--------------------------------------------------------|
Gb--------------------------------------------------------|
Db--5-----5-3--3\5-----5-3--3\5-----5-3--3\5--6-----------|
Ab--5-x-x-5-3--3\5-x-x-5-3--3\5-x-x-5-3--3\5--6-----------|
Eb--3-x-x-3-1--1\3-x-x-3-1--1\3-x-x-3-1--1\3--4-----------|


Riff 1
eb--------------------------------------------------------|
Bb--------------------------------------------------------|
Gb--------------------------------------------------------|
Db--------------------------------------------------------|
Ab--1-1-1---1--1-1--1-1-1--1-1-1---1--1-1---1-1-1---------|
Eb--3-3-0---3--3-0--3-3-0--3-3-0---3--3-0---3-3-0---------|

(continued)
eb--------------------------------------------------------|
Bb--------------------------------------------------------|
Gb------------------------------------------4-------------|
Db------------------------------------------4-3-----------|
Ab--2-2-2---2--2-2--2-2-2---1-1-2---1-1-2---2-3-----------|
Eb--0-0-3---0--0-3--0-0-3---3-3-0---3-3-0-----1-----------|


Verse
eb--------------------------------------------------------|
Bb--------------------------------------------------------|
Gb--------------------------------------------------------|
Db--------------------------------------------------------|
Ab--1-1-1---1--1-1--1-1-1--1-1-1---1--1-1---1-1-1---------|
Eb--3-3-0---3--3-0--3-3-0--3-3-0---3--3-0---3-3-0---------|

(continued)
eb--------------------------------------------------------|
Bb--------------------------------------------------------|
Gb------------------------------------------4--4-5--------|
Db----------------------------------------3-4--4-5-3------|
Ab--2-2-2---2--2-2--2-2-2---1-1-2---1-1---3-2--2-3-3------|
Eb--0-0-3---0--0-3--0-0-3---3-3-0---3-3---1--------1------|

(continued)
eb--------------------------------------------------------|
Bb--------------------------------------------------------|
Gb--------------------------------------------------------|
Db--------------------------------------------------------|
Ab--1-1-1---1--1-1--1-1-1--1-1-1---1--1-1---1-1-1---------|
Eb--3-3-0---3--3-0--3-3-0--3-3-0---3--3-0---3-3-0---------|

(continued)
eb--------------------------------------------------------|
Bb--------------------------------------------------------|
Gb----------------------------------------------------4---|
Db----------------------------------------------------4-3-|
Ab--2-2-2---2--2-2--2-2-2---1-1-2--1-1-2--3m-3m-3m-3m-2-3-|
Eb--0-0-3---0--0-3--0-0-3---3-3-0--3-3-0--1m-1m-1m-1m---1-|


Post-Chorus
eb--------------------------------------------------------|
Bb--------------------------------------------------------|
Gb--------------------------------------------------------|
Db--------------------------------------------------------|
Ab--3m-3m--3m--7^----3m-3m--3m--7^------------------------|
Eb--1m-1m--1m--------1m-1m--1m----------------------------|


Riff 2
eb--------------------------------------------------------|
Bb--------------------------------------------------------|
Gb----------------------------------------3---4---3-3-4---|
Db----------------------------------------3---4---3-3-4-3-|
Ab--1-1-1---1--1-1--1-1-1--1-1-1---1-1--x-1-x-2-x-1-1-2-3-|
Eb--3-3-0---3--3-0--3-3-0--3-3-0---3-3------------------1-|


Solo
eb---------------------------------------------------------|
Bb------------------------------------11--11-11-11-11------|
Gb--12--12-12-12-12--12--12-12-12-12--12--12-12-12-12--12--|v
Db--15--15-15-15-15--14--14-14-14-14-----------------------|
Ab---------------------------------------------------------|
Eb---------------------------------------------------------|

(continued)
eb-----------------------------------------------------15--|v
Bb------------------------------------11--11-11-11-11---x--|
Gb--12--12-12-12-12--12--12-12-12-12--12--12-12-12-12--12--|v
Db--15--15-15-15-15--14--14-14-14-14-----------------------|
Ab---------------------------------------------------------|
Eb---------------------------------------------------------|

(continued)
eb-----------------------------------------------19-19-16-|
Bb--------------------------------------------------------|
Gb--10/12-14-15-12-14-15-17-15-14-15-17-19-17-15----------|
Db--------------------------------------------------------|
Ab--------------------------------------------------------|
Eb--------------------------------------------------------|
[ Tab from: http://www.guitartabs.cc/tabs/p/pantera/rise_tab_ver_3.html ]
(continued)
eb--15-19-19-16-15-19-19-16-15-19-19-16-15----------------|
Bb------------------------------------------18-16-15------|
Gb--------------------------------------------------------|
Db--------------------------------------------------------|
Ab--------------------------------------------------------|
Eb--------------------------------------------------------|

(continued)
eb--------------------------------------------------------|
Bb--10-11-12-11-12-13-12-13-14-13-14-15-15-15-15-14-12-12-|
Gb--------------------------------------------------------|
Db--------------------------------------------------------|
Ab--------------------------------------------------------|
Eb--------------------------------------------------------|

(continued)
eb-----------------13-------------------------------------|
Bb--15v----14^--15----14v---13h14p13-12h13p12-------------|
Gb--------------------------------------------12h13p12----|
Db--------------------------------------------------------|
Ab--------------------------------------------------------|
Eb--------------------------------------------------------|

(continued)
eb------------------/-10`--10^------10----10----10--------|
Bb------------------/-12-------12------12----12----12p10--|
Gb--/-12v-------------------------------------------------|
Db----x---------------------------------------------------|
Ab--/-10v----10\------------------------------------------|
Eb-----------10\------------------------------------------|

(continued)
eb--------------14-15-17-15-14-12-15-14-12----14-12-------|
Bb------10v--------------------------------15-------15-14-|
Gb--h12---------------------------------------------------|
Db--------------------------------------------------------|
Ab--------------------------------------------------------|
Eb--------------------------------------------------------|

(continued)
eb--12----------------------------------------15-15-14-12-|
Bb-----15-14-12-15-14-12----14-12--------------x--x--x--x-|
Gb-----------------------14-------14-12-14v---12-12-11--9-|
Db--------------------------------------------------------|
Ab--------------------------------------------------------|
Eb--------------------------------------------------------|

(continued)
eb--15-15-14-12--------------------------------22^--22-22-|
Bb---x--x--x--x-------------------------------------------|
Gb--12-12-11--9---12-12-12-13--12--12--13-\---------------|
Db----------------12-12-12-12--12--12--12-\---------------|
Ab--------------------------------------------------------|
Eb--------------------------------------------------------|

(continued)
eb--22-22^--22-22-22-22^---15h17--------------------------|
Bb-------------------------------h17v---15/17-17-15/17-17-|
Gb--------------------------------------------------------|
Db--------------------------------------------------------|
Ab--------------------------------------------------------|
Eb--------------------------------------------------------|

(continued)
eb---------------------12-15-12-14-12----12-15-12-14-12---|
Bb--15/17-17-15/17-17-----------------15------------------|
Gb--------------------------------------------------------|
Db--------------------------------------------------------|
Ab--------------------------------------------------------|
Eb--------------------------------------------------------|

(continued)
eb-----12-------------------------------------------------|
Bb--15----15-14-12----14-12-------12----------------------|
Gb-----------------14-------14-12----14-12-----9^-11^-12--|
Db-----------------------------------------14-------------|
Ab--------------------------------------------------------|
Eb--------------------------------------------------------|

(continued)
eb--15`v-\------------------------------------------------|
Bb--17-v-\------------------------------------------------|
Gb-----------12-12-12-13--12--12--13-\--------------------|
Db-----------12-12-12-12--12--12--12-\--------------------|
Ab--------------------------------------------------------|
Eb--------------------------------------------------------|


Bridge
eb--------------------------------------------------------|
Bb--------------------------------------------------------|
Gb--------------------------------------------------------|
Db--------------------------------------------------------|
Ab--------------------------------------------------------|
Eb--1m-1m-1m-1m-1m-1m-1m-1m--1m-1m-1m-1m-1m-1m-1m-1m-1m---|

(continued)
eb--------------------------------------------------------|
Bb--------------------------------------------------------|
Gb-----------------------12-12-12-13--12--12--13----------|
Db-----------------------12-12-12-12--12--12--12----------|
Ab--------------------------------------------------------|
Eb--1m-1m-1m-1m-1m-1m-----------------------------12-\----|

(continued; end on:)
eb--------------------------------------------------------|
Bb--------------------------------------------------------|
Gb--12-12-12-13--12--12--13-------------------------------|
Db--12-12-12-12--12--12--12-------------------------------|
Ab--------------------------------------------------------|
Eb--------------------------------------------------------|


Outro
eb--------------------------------------------------------|
Bb--------------------------------------------------------|
Gb--------------------------------------------------------|
Db--------------------------------------------------------|
Ab--1-1-1---1--1-1--1-1-1--1-1-1---1--1-1---1-1-1---------|
Eb--3-3-0---3--3-0--3-3-0--3-3-0---3--3-0---3-3-0---------|

eb--------------------------------------------------------|
Bb--------------------------------------------------------|
Gb--------------------------------------------------------|
Db--------------------------------------------------------|
Ab--1-1-1---1--1-1--1-1-1--1-1-1---1--1-1-----------------|
Eb--3-3-0---3--3-0--3-3-0--3-3-0---3--3-0-----------------|


Chorus
Pre-Chorus
Riff 1
Verse
Pre-Chorus
Chorus
Post-Chorus
Riff 2
Verse
Pre-Chorus
Chorus
Post-Chorus
Solo
Bridge
Pre-Chorus
Chorus
Outro
Comments