Pantera - Revolution Is My Name Chords & Tabs

 

Revolution Is My Name Chords & Tabs

Pantera Chords & Tabs

Version: 4 Type: Tab 0 ratings
1 star 2 stars 3 stars 4 stars 5 stars
comments

Revolution Is My Name Tab

   
#----------------------------------PLEASE NOTE---------------------------------#
#This file is the author's own work and represents their interpretation of the #
#song. You may only use this file for private study, scholarship, or research. #
#------------------------------------------------------------------------------#

Revolution Is My Name


tuned slightly below 1 whole step


intro riff 1

(dime layered the intro with 3 guitars on the album)

gtrs. 1,2 (distortion w/ wah and fast chorus) 
gtr 3. (distorion w/ wah, chorus, heavy reverb)
all bends in intro are 1/2 step, unless otherwise notated
  
  
    a.h...........................
|------------------------------------------------------------------------------|
|------------------------------------------------------------------------------|
|---------8b------8b-----------------------------------------------------------|
|-----------------------8b-----------------------------------------------------|
|----/6b------6b------------7b-------------------------------------------------|
|-0-----------------------------6b---1---0-------------------------------------|


gtrs 1-3 play intro 3 times


gtrs. 1 and 2

                  grad. 1.5 step bend
    a.h............
|------------------------------------------------------------------------------|
|------------------------------------------------------------------------------|
|---------8b------8b-----------------------------------------------------------|
|------------------------------------------------------------------------------|
|---/6b-------6b---------------------------------------------------------------|
|-0----------------------------------------------------------------------------|


gtr. 3            grad. 1.5 step bend, held for next 4 measures
   a.h.............
|------------------------------------------------------------------------------|
|------------------------------------------------------------------------------|
|---------8b------8b------(8)--------------(8)-------------(8)-----------------|
|------------------------------------------------------------------------------|
|---/6b-------6b---------------------------------------------------------------|
|-0----------------------------------------------------------------------------|

gtrs. 1 and 2 w/ intro riff 1 4 more times


main riff (gtrs. 1 and 2, wah and chorus off)

p.m..................................                            
|------------------------------------------------------------------------------|
|------------------------------------------------------------------------------|
|------------------------------------------------------------------------------|
|------------------------------------------------------------------------------|
|---------------------------------------7p5----7-----5-------------------------|
|--0--0--0--0--0--0--0--0--0--0--0--0--------7-----7----7--6--5---3--5--3------|

p.m..........................            a.h.                 a.h.
|------------------------------------------------------------------------------|
|------------------------------------------------------------------------------|
|------------------------------------------------------------------------------|
|-----------------------------------------5b-------------------5b--------------|
|--------------------------------7p5------------7p5---7p5-----------7p5--------|
|--0----0----0----0----0----0----------7-------------------7-------------------|

p.m..................................                            
|------------------------------------------------------------------------------|
|------------------------------------------------------------------------------|
|------------------------------------------------------------------------------|
|------------------------------------------------------------------------------|
|---------------------------------------7p5----7-----5-------------------------|
|--0--0--0--0--0--0--0--0--0--0--0--0--------7-----7----7--6--5---3--5--3------|

p.m..........................
|------------------------------------------------------------------------------|
|------------------------------------------------------------------------------|
|------------------------------------------------------------------------------|
|--------------------------------5----8---(8)\---------------------------------|
|--------------------------------3----6---(6)\---------------------------------|
|--0----0----0----0----0----0----3----6---(6)\---------------------------------|



verse (play 4x)

p.m............................................................
|------------------------------------------------------------------------------|
|------------------------------------------------------------------------------|
|------------------------------------------------------------------------------|
|-------------------------------------------------------------------5\4--4--4\3|
|-------------------------------------------------------------------5\4--4--4\3|
|--0--6--0--3----5--0--6--0--3----5--0--6--0--3----5--0--6--0--3----3\2--2--2\1|



pre-chorus

p.m............................................................
|-------------------------------------------------------------------------------|
|-------------------------------------------------------------------------------|
|-------------------------------------------------------------------------------|
|--------------------------------------------------------------------5\4--4--4\3|
|--------------------------------------------------------------------5\4--4--4\3|
|--0--6--0--3--0--5--0--6--0--3--0--5--0--6--0--3--0--5--0--6--0--3--3\2--2--2\1|

p.m............................................................
|------------------------------------------------------------------------------|
|------------------------------------------------------------------------------|
|------------------------------------------------------------------------------|
|-------------------------------------------------------------------5\4--4--4\3|
|-------------------------------------------------------------------5\4--4--4\3|
|--0--6--0--3----5--0--6--0--3----5--0--6--0--3----5--0--6--0--3----3\2--2--2\1|

p.m............................................................
|-------------------------------------------------------------------------------|
|-------------------------------------------------------------------------------|
|-------------------------------------------------------------------------------|
|--------------------------------------------------------------------5\4--4--4\3|
|--------------------------------------------------------------------5\4--4--4\3|
|--0--6--0--3--0--5--0--6--0--3--0--5--0--6--0--3--0--5--0--6--0--3--3\2--2--2\1|

p.m............................
|------------------------------------------------------------------------------|
|------------------------------------------------------------------------------|
|------------------------------------------------------------------------------|
|---------------------------------5----8--8--8---------------------------------|
|---------------------------------3----6--6--6---------------------------------|
|--0--6--0--3----5--0--6--0--3----3----6--6--6---------------------------------|




chorus
|------------------------------------------------------------------------------|
|------------------------------------------------------------------------------|
|------------------------------------------------------------------------------|
|------------------------------------------------------------------------------|
|-------5--7--8--7~~---------5--7--8--7~~--------------------------------------|
|--0--------------------0------------------1--1--0-----------------------------|

|------------------------------------------------------------------------------|
|------------------------------------------------------------------------------|
|------------------------------------------------------------------------------|
|------------------------------------------------------------------------------|
|-------5--7--8--7~~---------5--7--8--7~~--------------------------------------|
|--0--------------------0------------------1--1--0-----------------------------|

|------------------------------------------------------------------------------|
|------------------------------------------------------------------------------|
|------------------------------------------------------------------------------|
|-------------8--------------------8-------------------------------------------|
|-------5--7-----------------5--7----------------------------------------------|
|--0-------------6~~----0-------------6~~--1--1--0-----------------------------|

|------------------------------------------------------------------------------|
|------------------------------------------------------------------------------|
|------------------------------------------------------------------------------|
|-------------8--------------------8-------------------------------------------|
|-------5--7-----------------5--7----------8----7----6----5--------------------|
|--0-------------6~~----0-------------6~~--6----5----4----3--------------------|



solo 1

gtr. 1
|------------------------------------------------------------------------------|
|------------------------------------------------------------------------------|
|------------------------------------------------------------------------------|
|----------4p2h4-----------------------------4p2---4/6---7p6---7/9---9b~~~~----|
|-----------------4p3h4---1-0-1~~----------------------------------------------|
|--2---2-----------------------------2---2-------------------------------------|


gtr. 1
|------------------------------------------------------------------------------|
|------------------------------------------------------------------------------|
|------------------------------------------------------------------------------|
|----------4p2h4-----------------------------4p2---4/6---7p6---7/9---9b~~~~----|
|-----------------4p3h4---1-0-1~~----------------------------------------------|
|--2---2-----------------------------2---2-------------------------------------|
gtr.2
|------------------------------------------------------------------------------|
|------------------------------------------------------------------------------|
|----------3p2-2~----------------------------3p2---3/4---6p4---6/8---8b~~~~----|
|-----------------4p3-4--------------------------------------------------------|
|-------------------------4p3-4~~----------------------------------------------|
|--2---2-----------------------------2---2-------------------------------------|


gtrs. 1 and 2                                    a.h.         a.h.  
|------------------------------------------------------------------------------|
|------------------------------------------------------------------------------|
|--------------------------------------------------------------------------5---|
|--5h7--5h7--7--5-----7-----5b-------------------------------------------------|
|--0----0----------7-----7------7--6--5--3--5--3--5b--5--5p3-------------------|
|--------------------------------------------------------------4b~~------------|
[ Tab from: http://www.guitartabs.cc/tabs/p/pantera/revolution_is_my_name_tab_ver_4.html ]
|---5----5----8p7p5--7p5-----5--------------------------------------------5--6-|
|--5----5----5------8----8p7---8p7p5-8p7p5--7p5----5----------------------8b-9b|
|7b---7b---7b-----------------------------8----8p7---8p7p5-8p7p5---5h7p5-------|
|-----------------------------------------------------------------7------------|
|------------------------------------------------------------------------------|
|------------------------------------------------------------------------------|


gtrs. 1 and 2 w/ maif riff

then verse (play 4x)

pre-chorus

chorus


solo 2

|------------------------------------------------------------------------------|
|------------------------------------------------------------------------------|
|------------------------------------------------------------------------------|
|----------4p2h4-----------------------------4p2---4/6---7p6---7/9---9b~~~~----|
|-----------------4p3h4---1-0-1~~----------------------------------------------|
|--2---2-----------------------------2---2-------------------------------------|


gtr. 1
|------------------------------------------------------------------------------|
|------------------------------------------------------------------------------|
|------------------------------------------------------------------------------|
|----------4p2h4-----------------------------4p2---4/6---7p6---7/9---9b~~~~----|
|-----------------4p3h4---1-0-1~~----------------------------------------------|
|--2---2-----------------------------2---2-------------------------------------|
gtr.2
|------------------------------------------------------------------------------|
|------------------------------------------------------------------------------|
|----------3p2-2~----------------------------2p1---2/4---6p4---6b~~~~~~~~~~~---|
|-----------------4p3-4--------------------------------------------------------|
|-------------------------4p3-4~~----------------------------------------------|
|--2---2-----------------------------2---2-------------------------------------|


gtr.1
|----------------------------|
|----------------------------|
|---------5/4----------------|
|-/7~~~~------5/3--2h3-------|
|----------------------3~~~~-|
|----------------------------|
gtr.2
|----------------------------|
|----------------------------|
|---------9/7----------------|
|-/5~~~~------9/7--5h7-------|
|----------------------7~~~~-|
|----------------------------|


both gtrs.
|------------5---------------8p7p5---5----5--8p7p5---5----5--8p7p5----5--------|
|-----------5--5-8b-8b-(8)\--------8---8b----------8---8b-----------8---8b-----|
|------5--7b-------------------------------------------------------------------|
|--/7--------------------------------------------------------------------------|
|------------------------------------------------------------------------------|
|------------------------------------------------------------------------------|

|5----5----5----5----5-----5---------------------------------------------------|
|--8b---8b---8b---8b---8b--x-5h8p5h8---5-------------------------------6-7-6-7~|
|------------------------------------8---8p7p5---5~~-----------6-7-6-7---------|
|----------------------------------------------7--------/9-8-9-----------------|
|------------------------------------------------------------------------------|
|------------------------------------------------------------------------------|

|------------------------------------------------------------------------------|
|-7h8p7p6--7p6---6--7p6---7----------------------------------------------------|
|--------------9--------9---9-7-6---7-6-----6----------------------------------|
|---------------------------------9-----9-7---9-7-6--9-7-6---7-6---------------|
|----------------------------------------------------------9-----9--7----------|
|------------------------------------------------------------------------------|

|------------------------------------------------------------------------------|
|----------------------------------------9~~----11b--11~-11~-9--11--9b~--------|
|----------------------------------------9~~----11b--11~-11~-9--11--9b~--------|
|-----------------------------9--10--11----------------------------------------|
|-------7--9------10------11---------------------------------------------------|
|--9~~-------------------------------------------------------------------------|


gtr.1                  
|-12--9------------------15--12------------------18--15-----------------18b~~~-|
|--------11------11--------------14------14--------------17------17------------|
|------------12b----12b--------------15b----15b--------------18b----18b--------|
|------------------------------------------------------------------------------|
|------------------------------------------------------------------------------|
|------------------------------------------------------------------------------|
gtr.2
|-9---6------------------12--9--------------------15--12----------------15b~~~-|
|---------8------8---------------11-------14--------------14------14-----------|
|------------9b-----9b----------------15b----15b--------------15b----15b-------|
|------------------------------------------------------------------------------|
|------------------------------------------------------------------------------|
|------------------------------------------------------------------------------|



interlude:

gtrs.1 and 2                            2x
           a.h.
|----------------------------------------|
|-----------9b-10---------9b-----10b--9b-|
|-----------9b-10---------9b-----10b--9b-|
|-----------X--X----------X------X-------|
|-----------X--X----------X------X-------|
|--0--0--0----------0--0------0----------|

p.m......                               4x
|----------------------------------------|
|----------------------------------------|
|----------------------------------------|
|----------------------------------------|
|-----------5-(5)--7--2-(2)--5----/9---8-|
|--0--0--0--3-(3)--5--0-(0)--3--0-/7---6-|

a.h...........................................................................
|------------------------------------------------------------------------------|
|------------------------------------------------------------------------------|
|--9h10p10p7--9--7-------------------------------------------------------------|
|-------------------9-8-7-5--7h8p7p5--7--5-------------------------------------|
|-------------------------------------------7-6-5-3--5h6p5p3--5--3-------------|
|-------------------------------------------------------------------5--4--3--1-|


gtrs. 1 and 2 w/ interlude 2x

then...

p.m..................................                            
|------------------------------------------------------------------------------|
|------------------------------------------------------------------------------|
|------------------------------------------------------------------------------|
|------------------------------------------------------------------------------|
|---------------------------------------7p5----7-----5-------------------------|
|--0--0--0--0--0--0--0--0--0--0--0--0--------7-----7----7--6--5---3--5--3------|

p.m..........................
|------------------------------------------------------------------------------|
|------------------------------------------------------------------------------|
|------------------------------------------------------------------------------|
|--------------------------------5--------8-----8-----8----2-------------------|
|--2----2----2----2----2----2----3--------6-----6-----6----2-------------------|
|--0----0----0----0----0----0----3--------6-----6-----6----0-------------------|


outro chorus

|------------------------------------------------------------------------------|
|------------------------------------------------------------------------------|
|------------------------------------------------------------------------------|
|------------------------------------------------------------------------------|
|-------5--7--8--7~~---------5--7--8--7~~--------------------------------------|
|--0--------------------0------------------1--1--0-----------------------------|

|------------------------------------------------------------------------------|
|------------------------------------------------------------------------------|
|------------------------------------------------------------------------------|
|------------------------------------------------------------------------------|
|-------5--7--8--7~~---------5--7--8--7~~--------------------------------------|
|--0--------------------0------------------1--1--0-----------------------------|

|------------------------------------------------------------------------------|
|------------------------------------------------------------------------------|
|------------------------------------------------------------------------------|
|-------------8--------------------8-------------------------------------------|
|-------5--7-----------------5--7----------------------------------------------|
|--0-------------6~~----0-------------6~~--1--1--0-----------------------------|

|------------------------------------------------------------------------------|
|------------------------------------------------------------------------------|
|------------------------------------------------------------------------------|
|-------------8--------------------8-------------------------------------------|
|-------5--7-----------------5--7------------------8--------7--------5-------3-|
|--0-------------6~~----0-------------6~~----6--6-----5--5-----3--3-----1--1---|

|------------------------------------------------------------------------------|
|------------------------------------------------------------------------------|
|------------------------------------------------------------------------------|
|------------------------------------------------------------------------------|
|-------5--7--8--7~~---------5--7--8--7~~--------------------------------------|
|--0--------------------0------------------1--1--0-----------------------------|

|------------------------------------------------------------------------------|
|------------------------------------------------------------------------------|
|------------------------------------------------------------------------------|
|------------------------------------------------------------------------------|
|-------5--7--8--7~~---------5--7--8--7~~--------------------------------------|
|--0--------------------0------------------1--1--0-----------------------------|

|------------------------------------------------------------------------------|
|------------------------------------------------------------------------------|
|------------------------------------------------------------------------------|
|-------------8--------------------8-------------------------------------------|
|-------5--7-----------------5--7----------------------------------------------|
|--0-------------6~~----0-------------6~~--1--1--0-----------------------------|

|---------------------------------------------------------------------|
|---------------------------------------------------------------------|
|---------------------------------------------------------------------|
|-------------8--------------------8----------------------------------|
|-------5--7-----------------5--7-----------0----8----7----5----3--2--|
|--0-------------6~~----0-------------6~~--------6----5----3----1--0--|
Comments