Pantera - Revolution Is My Name Chords & Tabs

 

Revolution Is My Name Chords & Tabs

Pantera Chords & Tabs

Version: 1 Type: Tab 2 ratings
1 star 2 stars 3 stars 4 stars 5 stars
comments

Revolution Is My Name Tab

   










#----------------------------------PLEASE 
NOTE--------------------------------#
#This file is the author's own work and represents their interpretation of 
the#
#song. You may only use this file for private study, scholarship, or 
research.#
#-----------------------------------------------------------------------------#
#-- File created with Instab - http://www.pconline.com/~smcarey/instab.html 
--#
#-----------------------------------------------------------------------------#

Author/Artist: pantera
Title: revolution is my name
Album: reinventing the steel
Transcribed by: dimebolt666----the axe man lives

This album has a wierd tuning
It's all a whole step down then tuned slightly flat
most of the bends are 1/4 step and lots of A.H.
everything is in order as you need to know it

b=bends
^=artificial harmonics
/=slide up
\=slide down
--- under something=palm mute
v=vibrato
h=hammer on
p=pull off

this is my first attempt at making TAB so bare with me



|----------------------------------|--------------------
|----------------------------------|--------------------
|--------8^b-----8^b---------------|-------8^b-----8^b--
|--------------------8^b-----------|--------------------
|---/6^b-----8^b---------7^b-------|---6^b-----8^b------
|-0--------------------------6^b-1-|-0------------------


|-----------------------------------------------------|
|-----------------------------------------------------|
|-----------------------------------------------------|
|-----------------------------------------------------|
|-------------------------7p5---7---5b----------------|
|-0-0-0-0-0-0-0-0-0-0-0-0-----7---7----7-6-5-3b-5b-3b-|
  -----------------------

|-----------------------------------------------|
|-----------------------------------------------|
|-----------------------------------------------|
|------------------------5^b------------5^b-----|
|------------------7p5-------7p5--7p5-------7p5-|
|-0--0--0--0--0--0-----7--------------7---------|
  ----------------




|------------|-------------------------------------------------|
|------------|-------------------------------------------------|
|------------|-------------------------------------------------|
|-5-------8\-|-------------------------------------5\4-4-4\3-3-|
|-3-------6\-|-------------------------------------5\4-4-4\3-3-|
|-3-------6\-|-0-6-0-3--5--0-6-0-3--5--0-6-0-3--5--3\2-2-2\1-1-|
               ----------------------------------

|----------------------------------------------|
|----------------------------------------------|
|----------------------------------------------|
|----------------------------------------------|
|----------------------------------------------|
|-0-6-0-3--5--0-6-0-3--5--0-6-0-3-0-5-0----15\-|
  -------------------------------------

|-------------------------------------------------|
|-------------------------------------------------|
|-------------------------------------------------|
|-------------------------------------5\4-4-4\3-3-|
|-------------------------------------5\4-4-4\3-3-|
|-0-6-0-3-0-5-0-6-0-3-0-5-0-6-0-3-0-5-3\2-2-2\1-1-|
  -----------------------------------

|-----------------------------------|
|-----------------------------------|
|-----------------------------------|
|-------------------------5---8-8-8-|
|-------------------------3---6-6-6-|
|-0-6-0-3--5--0-6-0-3--5--3---6-6-6-|
  ----------------------

|-----------------------|------------------------------|
|-----------------------|------------------------------|
|-----------------------|------------------------------|
|-----------------------|------------------------------|
|----5--7--8--7vvvvv----|-5--7--8--7vvvvv--------------|
|-0-------------------0-|-------------------1--1--0----|
           wide ass vibrato

|-----------------------|------------------------------|---------|
|-----------------------|------------------------------|---------|
|-----------------------|------------------------------|---------|
|----------8------------|-------8----------------------|---------|
|----5--7---------------|-5--7-------------------------|-8-7-6-5-|
|-0-----------6vvvvv--0-|----------6vvvvv--1--1--0-----|-6-5-4-3-|


|--------------------------------------------------------------|
|--------------------------------------------------------------|
|--------------------------------------------------------------|
|-------4p2-4vv--------------------------4p2-4\6-7-6-7\9-9bvvv-|
|---------------4p3-4vv-1p0-1vv--------------------------------|
|-2--2-----------------------------2--2------------------------|


|--------------------------------------------------------------|
|--------------------------------------------------------------|
|-------3p2-3vv--------------------------3p2-3\4-6-4-6\8-8bvv--|
|---------------4p3-4vv----------------------------------------|
|-----------------------4p3-4vv--------------------------------|
|-2--2-----------------------------2--2------------------------|
  harmony part
[ Tab from: http://www.guitartabs.cc/tabs/p/pantera/revolution_is_my_name_tab.html ]
|---------------------------------------------------------------|
|---------------------------------------------------------------|
|---------------------------------------------------------------|
|-5h7-5h7--7-5---7---5b-----------------------------------------|
|---0---0------7---7----7-6-5-3b-5b-3b-5^b-5^vvv--3h5-3^b-------|
|---------------------------------------------------------4^bvv-|
        all b. 1/4 step---------------  full           1/4 1/2

|-------5------5------8-7-5---7-5-----5--------------------------------------
|-----5------5------5-------8-----8-7---8-7-5-8-7-5---7-5-----5--------------
|-5-7b----7b-----7b---------------------------------8-----8-7---8-7-5-8-7-5--
|----------------------------------------------------------------------------
|----------------------------------------------------------------------------
|----------------------------------------------------------------------------


---------5----6--\-|-------------------------|-----------------------------|
---------8bvv-9b-\-|-------------------------|-----------------------------|
---5-7-5-----------|-------------------------|-----3p2-3vv-----------------|
-7-----------------|-------------------------|-------------4p3-4vv---------|
-------------------|-----8-----7-----5-----3-|---------------------4p3-4vv-|
-------------------|-6-6---5-5---3-3---1-1---|-2-2-------------------------|
       both full     p.m.-------------------   second harmony part

|------------------------|
|------------------------|
|-----2p1-2/4-6-4-6b-6vv-|
|------------------------|
|------------------------|
|-2-2--------------------|


|------------------------|
|------------------------|
|--------5\4-------------|
|-/7vv-------5\3-2h3-----|
|--------------------3vv-|
|------------------------|


|------------------------|
|------------------------|
|-/5vv---9\7-------------|
|------------9\7-5h7-----|
|--------------------7vv-|
|------------------------|
   harmony part

|-----------5----------|-8p7p5---5-------5-8p7p5---5-------5-8p7p5---5-------
|---------5---5-8b-8br-|-------8---8b------------8---8b------------8---8b----
|----5-7b--------------|-----------------------------------------------------
|-/7-------------------|-----------------------------------------------------
|----------------------|-----------------------------------------------------
|----------------------|-----------------------------------------------------


-5----5----5----5----5----5-------------------------|-------------------------
---8b---8b---8b---8b---8b---8p5-8p5---5-------------|-------------------------
------------------------------------8---8p7p5---5vv-|--------6-7-6-7----------
----------------------------------------------7-----|-/9-8-9------------------
----------------------------------------------------|-------------------------
----------------------------------------------------|-------------------------


------------------|---------------------------------|-------------------------
-6-7-6-7h8-7vvvvv-|-7h8p7p6-7p6---6-7p6---7---------|-------------------------
------------------|-------------9-------9---9-7-6---|-7-6-----6---------------
------------------|-------------------------------9-|-----9-7---9-7-6-9-7-6---
------------------|---------------------------------|-----------------------9-
------------------|---------------------------------|-------------------------
                                                      
-----------------------

--------------|-----------------------------------------------|
--------------|-------------------9vv---11b-11vv-11vv-9-11-9b-|
--------------|-------------------9vv---11b-11vv-11vv-9-11-9b-|
-7-6----------|-----------9-10-11-----------------------------|
-----9-7------|-7-9-10-11-------------------------------------|
---------9vvv-|-----------------------------------------------|
-------

|-12-9---------------15-12---------------18-15---------------18bvvvv-|
|------11-----11-----------14-----14-----------17-----17-------------|
|---------12b----12b----------15b----15b----------18b----18b---------|
|--------------------------------------------------------------------|
|--------------------------------------------------------------------|
|--------------------------------------------------------------------|


|-9-6-----------12-9---------------15-12---------------15bvvv-|
|-----8----8---------11-----11-----------14-----14------------|
|-------9b---9b---------12b----12b----------15b----15b--------|
|-------------------------------------------------------------|
|-------------------------------------------------------------|
|-------------------------------------------------------------|


|---------------------------------------|-----------------------|
|-------9^b-10^-----9^br---10^b-9^b-----|-----------------------|
|-------9^b-10^-----9^br---10^b-9^b-----|-----------------------|
|-------x---x-------x------x----x-------|-----------------------|
|-------x---x-------x------x----x-------|-------5-7-2-5---5/9-8-|
|-0-0-0---------0-0------0--------------|-0-0-0-3-5-0-3-0-3/7-6-|
  -----         ---      -                -----         -

|--------------------------------------------------------------|
|--------------------------------------------------------------|
|-9h10p9p7-9-7-------------------------------------------------|
|--------------9-8-7-5-7h8p7p5-7-5-----------------------------|
|----------------------------------7-6-5-3-5h6p5p3-5-3---------|
|------------------------------------------------------5-4-3-1-|
  all A.H.

|-----------|
|-----------|
|-----------|
|-----------|
|-8-7-5-3-2-|
|-6-5-3-1-0-|









Comments