Pantera - Primal Concrete Sledge Chords & Tabs

 

Primal Concrete Sledge Chords & Tabs

Pantera Chords & Tabs

Version: 3 Type: Tab 0 ratings
1 star 2 stars 3 stars 4 stars 5 stars
comments

Primal Concrete Sledge Tab

Band: Pantera
Song: Primal concrete sledge
Album: Cowboys from hell
Guitarist: Dimebag Darrel
Transcriber: Robert Johnstone
Standard tuning

Note: For the second riff (main one) you have to play really fast and I mean really fast
Listen to the song for timing
This is Pantera's best album as well as vulgar display of power!

Riff 1
E----------------------------|
B----------------------------|
G----------------------------|
D---3wd----------------------|
A---3wd----------------------|
E---1wd------------ps--------|

Riff 2(Fast)
E----------------------------------------------------------|
B----------------------------------------------------------|
G----------------------------------------------------------|
D--3-3---3-3---3-3---3-3---3-3---3-3---3-3---3-3-----------|
A--3-3---3-3---3-3---3-3---3-3---3-3---3-3---3-3-----------|
E--1-1---1-1---1-1---1-1---1-1---1-1---1-1---1-1-----------|

Riff 3
E-------------------------------|
B-------------------------------|
G-------------------------------|
D---8-s-7-s-6-s-4-s-6-----------|
A---8-s-7-s-6-s-4-s-6-----------|
E---6-s-5-s-4-s-2-s-4-----------|


Riff 2(Fast)
E----------------------------------------------------------|
B----------------------------------------------------------|
G----------------------------------------------------------|
D--3-3---3-3---3-3---3-3---3-3---3-3---3-3---3-3-----------|
A--3-3---3-3---3-3---3-3---3-3---3-3---3-3---3-3-----------|
E--1-1---1-1---1-1---1-1---1-1---1-1---1-1---1-1-----------|


Riff 3
E-------------------------------|
B-------------------------------|
G-------------------------------|
D---8-s-7-s-6-s-4-s-6-----------|
A---8-s-7-s-6-s-4-s-6-----------|
E---6-s-5-s-4-s-2-s-4-----------|
[ Tab from: http://www.guitartabs.cc/tabs/p/pantera/primal_concrete_sledge_tab_ver_3.html ]
Riff 2(Fast)
E----------------------------------------------------------|
B----------------------------------------------------------|
G----------------------------------------------------------|
D--3-3---3-3---3-3---3-3---3-3---3-3---3-3---3-3-----------|
A--3-3---3-3---3-3---3-3---3-3---3-3---3-3---3-3-----------|
E--1-1---1-1---1-1---1-1---1-1---1-1---1-1---1-1-----------|

Riff 3
E-------------------------------|
B-------------------------------|
G-------------------------------|
D---8-s-7-s-6-s-4-s-6-----------|
A---8-s-7-s-6-s-4-s-6-----------|
E---6-s-5-s-4-s-2-s-4-----------|

Riff 4(Repeated a whole bunch of times, kinda like an interlude)
E---------------------------------------|
B---------------------------------------|
G---------------3h53h5--3-2------------|
D---3-3-3-3-----------------------------|
A---3-3-3-3-----------------------------|
E---1-1-1-1-----------------------------|

Riff 2(Fast)
E----------------------------------------------------------|
B----------------------------------------------------------|
G----------------------------------------------------------|
D--3-3---3-3---3-3---3-3---3-3---3-3---3-3---3-3-----------|
A--3-3---3-3---3-3---3-3---3-3---3-3---3-3---3-3-----------|
E--1-1---1-1---1-1---1-1---1-1---1-1---1-1---1-1-----------|

Riff 3
E-------------------------------|
B-------------------------------|
G-------------------------------|
D---8-s-7-s-6-s-4-s-6-----------|
A---8-s-7-s-6-s-4-s-6-----------|
E---6-s-5-s-4-s-2-s-4-----------|

Riff 2(Fast)
E----------------------------------------------------------|
B----------------------------------------------------------|
G----------------------------------------------------------|
D--3-3---3-3---3-3---3-3---3-3---3-3---3-3---3-3-----------|
A--3-3---3-3---3-3---3-3---3-3---3-3---3-3---3-3-----------|
E--1-1---1-1---1-1---1-1---1-1---1-1---1-1---1-1-----------|


Keys:
Wd- Press your whammy bar down so it makes a deep fading sound
s-slide
ps-pickslide
h-hammer on

As you can see I have been very lazy with this tab, all the riffs are here but not very 
you will have to listen to the song for timing and how may times each riff is repeated
Comments