Pantera - Primal Concrete Sledge Chords & Tabs

 

Primal Concrete Sledge Chords & Tabs

Pantera Chords & Tabs

Version: 2 Type: Bass Tab 0 ratings
1 star 2 stars 3 stars 4 stars 5 stars
comments

Primal Concrete Sledge Bass Tab

   
#----------------------------------PLEASE NOTE---------------------------------#
#This file is the author's own work and represents their interpretation of the #
#song. You may only use this file for private study, scholarship, or research. #
#------------------------------------------------------------------------------##
Date: Sun, 3 Dec 1995 13:37:09 -0500
From: Don Pezet 
Subject: BTAB: Primal Concrete Sledge by Pantera


Bass Tab by: Don Pezet (dpezet@ao.net)
Group: Pantera
Song: Primal Concrete Sledge
Album: Cowboys From Hell
Written and arranged by: Pantera




              PRIMAL CONCRETE SLEDGE - PANTERA   BASS
              ---------------------------------------

Drop D Tuning  (D,A,D,G)

                                    4x                                    4x
||-----------------------------------|||-----------------------------------||
||o---------------------------------o|||o---------------------------------o||
||o---------------------------------o|||o---------------------------------o||
||--0-0-0-0-0-0-0-0-0-0-0-0-0-0-0-0--|||--0-0-0-0-0-0-0-0-0-0-0-0-0-0-0-0--||
    s s s s s s s s s s s s s s s s       s s s s s s s s s s s s s s s s


|-------------------|-------------------|-------------------|----------------|
|-------------------|-------------------|-------------------|----------------|
|-------------------|-------------------|-------------------|----------------|
|-0-5---6--3--4---1-|-0-7---6--3--4---1-|-0-5---6--3--4---1-|-0-7---6--1-----|
  e e+s e. e. s+e e   e e+s e. e. s+e e   e e+s e. e. s+e e   e e+s e. e e Q

                                    4x  verse 1                           4x
||-----------------------------------|||-----------------------------------||
||o---------------------------------o|||o---------------------------------o||
||o---------------------------------o|||o---------------------------------o||
||--0-0-0-0-0-0-0-0-0-0-0-0-0-0-0-0--|||--0-0-0-0-0-0-0-0-0-0-0-0-0-0-0-0--||
    s s s s s s s s s s s s s s s s       s s s s s s s s s s s s s s s s

|-------------------|-------------------|-------------------|
|-------------------|-------------------|-------------------|
|-------------------|-------------------|-------------------|
|-0-5---6--3--4---1-|-0-7---6--3--4---1-|-0-5---6--3--4---1-|
  e e+s e. e. s+e e   e e+s e. e. s+e e   e e+s e. e. s+e e

 9/8                   2/4
|---------------------|-------||
|---------------------|-------||
|---------------------|-------||
|-0-7---6--5--4---3-2-|-1-----||
  e e+s e. e. s+e e e   e e Q

  4/4                               4x  verse 2                           4x
||-----------------------------------|||-----------------------------------||
||o---------------------------------o|||o---------------------------------o||
||o---------------------------------o|||o---------------------------------o||
||--0-0-0-0-0-0-0-0-0-0-0-0-0-0-0-0--|||--0-0-0-0-0-0-0-0-0-0-0-0-0-0-0-0--||
    s s s s s s s s s s s s s s s s       s s s s s s s s s s s s s s s s
[ Tab from: http://www.guitartabs.cc/tabs/p/pantera/primal_concrete_sledge_btab_ver_2.html ]
|-------------------|-------------------|-------------------|
|-------------------|-------------------|-------------------|
|-------------------|-------------------|-------------------|
|-0-5---6--3--4---1-|-0-7---6--3--4---1-|-0-5---6--3--4---1-|
  e e+s e. e. s+e e   e e+s e. e. s+e e   e e+s e. e. s+e e

 9/8                   2/4
|---------------------|-------||
|---------------------|-------||
|---------------------|-------||
|-0-7---6--5--4---3-2-|-1-----||
  e e+s e. e. s+e e e   e e Q

||--------------------|-------------------|-------------------|
||o-------------------|-------------------|-------------------|
||o-------------------|-------------------|-------------------|
||--0-0-0-0-0-0-0-0-0-|-0-0-0-0-0-0-0-0-0-|-0-0-0-0-0-0-0-0-0-|
    q e e e s s e s s   q e e e s s e s s   q e e e s s e s s

|1.                 |2.
|------------------||---------------||-----------------|-----|-----|
|-----------------o||---------------||-----------------|-----|-----|
|-----------------o||---------------||-----------------|--%--|--%--|
|-1--1---1---1--1--||-1-1-1-1-1-1-1-||-0-0-0-0-0-0-0-0-|-----|-----|
  e. s+e e+s e. q     e q e q e s s    e e e e e e e e

|---------------||--------------------------|-----|-----|
|---------------||o-------------------------|-----|-----|
|---------------||o-------------------------|--%--|--%--|
|-0-1---1---1---||--0-0-0-0-0-0-0-0-0-0-0-0-|-----|-----|
  e e Q e e e e     e s s e s s e s s e s s

                           2x
|---------------------------||-----|-----|-----------------|
|-------------------------o-||-----|-----|-----------------|
|-------------------------o-||-----|-----|-----------------|
|-0-1-1-1-1-1-1-1-1-1-1-1---||--0--|-(0)-|-0-1-1-1-1-1-1-1-|
  e s s e s s e s s e s s       w  +  w    e e e e e e e e

                      7/8               4/4                                4x
|--------------------|-----------------||-----------------------------------||
|--------------------|-----------------||o---------------------------------o||
|--------------------|-----------------||o---------------------------------o||
|-1-1---3--4---5---6-|---7--6--5---3-1-||--0-0-0-0-0-0-0-0-0-0-0-0-0-0-0-0--||
  e e+s e. e.  s+e e + s e. e. s+e e e     s s s s s s s s s s s s s s s s

||--------------------|-------------------|-------------------|
||o-------------------|-------------------|-------------------|
||o-------------------|-------------------|-------------------|
||--0-5---6--3--4---1-|-0-7---6--3--4---1-|-0-5---6--3--4---1-|
    e e+s e. e. s+e e   e e+s e. e. s+e e   e e+s e. e. s+e e

|1. 9/8                 |2.  9/8              4/4
|----------------------||---------------------|---------||
|---------------------o||---------------------|---------||
|---------------------o||---------------------|---------||
|-0-7---6--5--4---3-1--||-0-7---6--5--4---3-2-|-1-------||
  e e+s e. e. s+e e e     e e+s e. e. s+e e e   e e Q H


--=====================_818026753==_
Content-Type: text/plain; charset="us-ascii"

--
dpezet@accessorl.net

--=====================_818026753==_--


Comments