Pantera - Planet Caravan Chords & Tabs

 

Planet Caravan Chords & Tabs

Pantera Chords & Tabs

Version: 2 Type: Tab 1 rating
1 star 2 stars 3 stars 4 stars 5 stars
comments

Planet Caravan Tab

   
Tuning: Eb Ab Db Gb Bb Eb, half step down
Gtr I - Lead, Electric, Jazzy clean
Gtr II - Rhythm (left speaker), Steel stringed acoustic, Clean
Gtr III - Rhythm (right speaker), Steel stringed acoustic, Clean

 4/4
 Q=85 bpm
 Gtr I, II, III
    Ebmadd9                             Gbmaj7          Dbadd9
    E   E   E   E   +E    Q       E     E   E   E   E   E   E   E   E
||--------------0---(0)---------------|----------------------------------||
||o-------------0---(0)---------------|-------------0-------------------o||
||--------------0---(0)---0-----------|---------0---------------0---2----||
||----------5-------------4-------2---|-----4---------------4------------||
||o-----2-----------------------------|-5---------------5---------------o||
||--0---------------------------------|----------------------------------||
 |-The Riff                                                 end The Riff-|



 Jazz Solo:
(Gtr II, III play the riff as back up all the way)
 Gtr I
  Q.          E   H                 +Q        a S E   E   a S S S E   E
|---------------------------------|---------------------------------------|
|---------------------------------|---------------------------------------|
|---------------------------------|---------------------------------------|
|-4-------------------------------|---------------5---7---7s8s7p5-7---5---|
|-------------5---7---------------|-(7)-------5s7-------------------------|
|---------------------------------|---------------------------------------|


                                          PM------|                       |-3-|
  E   S S E.    a E   S S S Q         E   S S S S S a S S a S S a S S a S S S S
|-----------------------------------|-------------------------------------------|
|-----------------------------------|-------------------------------------------|
|-----------------------------------|-------------------------------------------|
|-5-------------------5-------------|-----------5-5-7s8s7-7s8s7-7s8s7-7s8s7p5---|
|-----7p5-7-----5s7-----7p5-7-------|-----5-7-7-------------------------------7-|
|-----------------------------------|-------------------------------------------|



  Q       E   E   E   E   E   E     a a S S S S S S S S e   S S Q
|---------------------------------|-------------------------------------|
|---------------------------------|-----7-8p7---7-----------------------|
|---------------------------------|---x-------9---7s6-7s6---7-----------|
|-5---------------5---4-----------|-x-------------------------7-5-------|
|---------7--p5-----------7---5---|-------------------------------------|
|---------------------------------|-------------------------------------|


                                                   |-3-| |-3-|       |-3-|
  E   a a S S S S  S S S S S S  S S S S    S S E   S S S E   S S S S T T T S S S S
|---------------------------------------|------------------------------------------|
|---------7-8p7---10---7-8p7---10---7-8-|-p7---7---7h8p7-----7---------------------|
|-------x-------7----7-------7----7-----|----7-----------9-----7-6-7-6h7p6-4-6-----|
|-----x---------------------------------|--------------------------------------7s5-|
|---------------------------------------|------------------------------------------|
|---------------------------------------|------------------------------------------|



  T T T T T T T T a Q       +E     S S +Q          E.    S S S S a S S S S S T T T T S S
|------------------------------------------------|---------------------------------------|
|------------------------------------------------|---------------------------------------|
|------------------------------------------------|-------------7-------------------------|
|-7p5p4---5p4---4-----------------/4-------------|---------5-7---7s8---7-5---7h8p7p5-7-5-|
|-------7-----7---5s7-------(7)------5-(5)-------|-5-----x-----------------7-------------|
|------------------------------------------------|---------------------------------------|



  q.          E   +E    S S S S S  S   Q       S e    S S  T  T  T T S  S S S  T  T
|------------------------------------|----------------------------------------------|
|-------------------------------8b10-|-----------8---11---10h11p10p8---10---8-10h11-|
|-------------------------6-7-9------|-9~------9---------------------9----9---------|
|-------------5---(5)---9------------|----------------------------------------------|
|-7----------------------------------|----------------------------------------------|
|------------------------------------|----------------------------------------------|


    |-3-|                                                     |-3-|  |3-|    |-3-|  |3-|    |-3-|  |--3--|
    S S S  E   S  S E    s S  E      +Q          a E    +E    e   S  S  e    e   S  S  e    e   S  S  S  S
|----------------------------------------------|-----------------------------------------------------------|
|-p10-8---10---8-10-----11-8b10---pb(10)-------|-8p6~---(6)/-15--15p14p13---14--14p13p11---13--13p12p10----|
|-------9--------------------------------------|--------------------------------------------------------11-|
|----------------------------------------------|-----------------------------------------------------------|
|----------------------------------------------|-----------------------------------------------------------|
|----------------------------------------------|-----------------------------------------------------------|

[ Tab from: http://www.guitartabs.cc/tabs/p/pantera/planet_caravan_tab_ver_2.html ]
                                           |----3----|
   E  Q.           Q.          a a  E      E    E    E   E    E  Q.              S  S
|----------------------------------12---|-14---15---17-------17b19~-----------pb19r17-|
|--------------------------------x------|---------------------------------------------|
|-14b16~-----------------------x--------|---------------------------------------------|
|---------------------------------------|---------------------------------------------|
|---------------------------------------|---------------------------------------------|
|---------------------------------------|---------------------------------------------|


    |---3--|  |--3--|
   +S   S  S  S  S  S  Q  Q.         a a    S  S    T  T  E.      +Q          S  S  S S  S  S  S  S
|-(17)p15p14-------15----------------------------|--------------------------------------------------|
|------------17p15----15b17~-------------pb17r15-|-12p11--------------------------------------------|
|--------------------------------------x---------|-------14~-----(14)~------------------11h12p11h12-|
|------------------------------------x-----------|---------------------------11-12p11p9-------------|
|------------------------------------------------|--------------------------------------------------|
|------------------------------------------------|--------------------------------------------------|



    Q         E    a  E    +Q.            S  T  T    S  S  S  S S  S  S S  S  S  Q.
|-------------------------------------------------|-------------------------------------------|
|-------------------------------------------------|-------------------------------------------|
|-p11~--------------------------------------------|-------------------------------------------|
|------------14---12h14---(14)-----------11h12p11-|-p9h11-------------------------------------|
|-------------------------------------------------|-------12p10p9h10----9---------------------|
|-------------------------------------------------|------------------12---10s12-10~-----------|


             |-----5-----|  |--3--|  |--3--|  |--3--|     |---3----|
   E    E    S  S  S  S  S  S  S  S  S  S  S  S  S  S  a  S  S  a  S
|--------------------------------------------------------------------|
|--------------------------------------------------------------------|
|-----------------------------------14----12-------15-------15-------|
|-----------12----14----12-12h13h14----14----14b16----14b16----14b15-|
|--------------14----14----------------------------------------------|
|-12---14------------------------------------------------------------|



   T  T  T  T  T  T  T  T  T  T  T  T  S  S  S  a  S  S  a  S  S  E.
|-------------------12----------------------12-------12------------------|
|-12-------------12----15p12----------15b17----15b17----17b19-17-15~-----|
|----15p12-14b16-------------15p14p12------------------------------------|
|------------------------------------------------------------------------|
|------------------------------------------------------------------------|
|------------------------------------------------------------------------|


                                                  |---3---|  |--3--|                         |--3--|
   +Q        a  T  T  T  T  T  T  S  H            a  e    S  S  S  S  E    S  S  T  T  T  T  S  S  S  +Q
|--------------17h19p17p15----------------------|---17---15p14----17----------------------------------------|
|-(15)~------x-------------19p17p15-15~---------|-x------------17----15---12-15-12--------------------------|
|-----------------------------------------------|----------------------------------15p14p12----14-----------|
|-----------------------------------------------|-------------------------------------------14----14-(14)---|
|-----------------------------------------------|-----------------------------------------------------------|
|-----------------------------------------------|-----------------------------------------------------------|


                 |--3--|     |--3--|  |-----5-----|     |--3--|  |--3--|
  a  a  E  S  S  S  S  S  a  S  S  S  S  S  S  S  S  a  S  S  S  S  S  S    Q      +E.      T  T  H
|---14b15r14-12-15----12-------------------------------------------------|--------------------------------|
|-x----------------15----15b17r15-12-12h15p12h15p12----------------------|--------------------------------|
|---------------------------------------------------14b16r14-12-14----12-|--------------------------------|
|------------------------------------------------------------------14----|-12-----(12)-----14h16-12-------|
|------------------------------------------------------------------------|--------------------------------|
|------------------------------------------------------------------------|--------------------------------|


                                                                                                       |--3--|
   T  T  S  T  T  T  T  T  T  S  T  T  T  T  a  Q    S  S S  S    S  E.     S  S  S  S  S  S  S  S  a  S  S  S  S  S
|--------------------------------------------------------------|-----------------------------------------------------|
|--------------------------------------------------------------|-----------------------------------------------------|
|-14p12p11h12p11----11-----------------------------------------|-----------------------------12-14-14b16r14-12-14-12-|
|----------------14----14p12p11h12p11----11--------------------|--------------------12-13-14-------------------------|
|-------------------------------------14----12s10---10----9----|-----------10-12-14----------------------------------|
|------------------------------------------------------12---12-|-12-10-----------------------------------------------|

Comments