Pantera - Mouth For War Chords & Tabs

 

Mouth For War Chords & Tabs

Pantera Chords & Tabs

Version: 4 Type: Tab 0 ratings
1 star 2 stars 3 stars 4 stars 5 stars
comments

Mouth For War Tab

Band-pantera
Song-mouth for war
Album-vulgar display of power
Tabbed by godsmackthatkid


Intro/Pre-Chorus
|---------------------------------------|
|---------------------------------------|
|-------------4-------------4---4---4---|
|-------------4-------------4---4---4---|x3
|-0-1-2-2-2-2-2-2-2-0-1-2-2-2-2-2-2-2---|
|---------------------------------------|

|--------------------------------------------|
|--------------------------------------------|
|-------------4-------------4---4---4--------|
|-------------4-------------4---4---4--------|
|-0-1-2-2-2-2-2-2-2-0-1-2-2-2-2-2-2-2--------|
|--------------------------------------s12s--|

Chorus                               
|-------------------------------------|
|-------------------------------------|
|-------------------------------------|
|-------------------------------------|x2
|-5/9------5------5/9-----5/9-----5---|
|-3/7---0-3---0-3/7--0--3/7-0--3---|

|---------------------------------------|
|-------------------------------------7-|
|-------------------------------------x-|
|-------------------------------------x-|
|-5/9------5/9------5--2---5/9-----5----|
|-3/7---0-3/7---0-3--0---3/7-0--3----|

|---------x-x-x----|
|---------x-x-x----|
|------------------|
|-9---9s-----------|
|-x--------------2-|
|-7---7s-------0-|

Verse
|------------------------------------------|
|------------------------------------------|
|------------------------------------------|
|------------------------------------------|
|----8---9/10-----7/8-----5----5/7-----4/5-|
|-0--6-0-7/8---0--5/6--0--3--0-3/5--0--2/3-|

|-------------------------------x-x-x----|
|-------------------------------x-x-x----|
|----------------------------------------|
|----------------------------------------|
|----8---9/10----7/8-------5-----------2-|
|-0--6-0-7/8--0--5/6--0----3--0--------0-|

|-------------------------------x-x-|
|-------------------------------x-x-|
|-----------------------------------|
|-----------------------------------|
|----8---9/10----7/8-------5--------|
|-0--6-0-7/8--0--5/6--0----30------|

Fill at beginning of each verse
|-----|
|-----|
|-----|
|-----|
|-2-2-|
|-0-0-|

Rhythm under solo/Pre-Breakdown
|-------------------------------------|
|-------------------------------------|
|-------------------------------------|
|-----------4--------8-7--6--4--4-----|
|-4/6-6--6--2--6--6--6-5--4--2--2--4--|
|-2/4-4--4-----4--4----------------2--|

|-------------|
|-------------|
|-------------|
|-2---9--8--7-|
|-2---7--6--5-|
|-0-----------|

|-----------------------------------------|
|-----------------------------------------|
|-----------------------------------------|
|-----------4-------------8-7--6--4--4----|
|-4/6-6--6--2---6--6------6-5--4--2--2--4-|
|-2/4-4--4------4--4--------------------2-|

|-------------|
|-------------|
|-------------|
|-2---9--8--7-|
|-2---7--6--5-|
|-0-----------|

Breakdown
|---------------------------------|
|---------------------------------|
|---------------------------------|
|---------------------------------|
|-6--6---6/4----------------------|
|-4--4---4-2----------------------|
[ Tab from: http://www.guitartabs.cc/tabs/p/pantera/mouth_for_war_tab_ver_4.html ]
|----------------------------------|
|----------------------------------|
|----------------------------------|
|------------------------9---------|
|-6----------------------9---------|
|-4-4-4-4-4-4-4-4-4------7---------|

|---------------------------------|
|---------------------------------|
|---------------------------------|
|------------------------7--------|
|-6----------------------7--------|
|-4-4-4-4-4-4-4-4-4------5--------|

Solo
|-----------------------------------------------------|
|---------------9b--------9--12--12b---12b---12-------|
|--------8------------/9------------------------13~---|
|-4h6~------6-----------------------------------------|
|-----------------------------------------------------|
|-----------------------------------------------------|

                                                    
|--7--7--7--7--7--x--x--7---x--7--/9--------16--19--19b---19b---19~--|
|-----------------x--x------x----------/17---------------------------|
|--4--4--4--4--4--x--x--4---x--4--/6---------------------------------|
|--------------------------------------------------------------------|
|--------------------------------------------------------------------|
|--------------------------------------------------------------------|
                                      
|---22b-r-b~---22b-r-b~---22b-r-b~---22b--22--22--22r--| 
|--x---------------------------------21b--21--21--21r--| 
|-x----------------------------------------------------|
|------------------------------------------------------|
|------------------------------------------------------|
|------------------------------------------------------|

|---------------------------------------------------------------------|
|---------------------------------------------------------------------|
|---------------------------------------------------------------------|
|----------------------------------------------------14--------14-16--|
|-------------14--------14-16-----14-16-17--14-16-17-----16-14--------|
|--/14-14-16--14-16-17-----16-17--------17----------------------------|

|------------------------------------------------16------|
|--------------^-------12--^---16-19p16----19b-----19-16-|
|--^-11-13----11-13-14----18b-----------18---------------|
|-14-------14--------------------------------------------|
|--------------------------------------------------------|
|--------------------------------------------------------|

|--------------------------------------------------------16--------|
|------------------------------------16-19p16------19b-------19-16-|
|------------------------14-16--18b-----------18-------------------|
|-----14-16-18--14-16-18-------------------------------------------|
|--17--------------------------------------------------------------|
|------------------------------------------------------------------|

|---------------------16--------19b--------r16-------------------|
|----16-19p16---19b-----19-16---------------------17b~--\--------|
|-18b---------18-------------------------------------------------|
|----------------------------------------------------------------|
|----------------------------------------------------------------|
|----------------------------------------------------------------|
Comments