Pantera - Message In Blood Chords & Tabs

 

Message In Blood Chords & Tabs

Pantera Chords & Tabs

Version: 1 Type: Tab 0 ratings
1 star 2 stars 3 stars 4 stars 5 stars
comments

Message In Blood Tab

message in blood - tabbed by patrick hood (splice@olemiss.edu)

this is kinda quick tab and there are artificial harmonics all
through this, but it should give you a general idea of how things
go.. thought the net might want this since i've seen it tabbed
nowhere.. forget the solo, you don't have enough fingers.

intro:
------------------------------------------------------------------
------------------------------------------------------------------
------------------------------------------------------------------
------------------------------------------------------------------
-65-65-65-65-65-54-43-32------------------------------------------
---6--6--6--6--6--5--4--3-1-111-111-1-111-111-1-111-111-1-111-111-

------------------------------------------------------------------
------------------------------------------------------------------
------------------------------------------------------------------
--------------------------------------------------------------5\--
-----------------32-23-32-23-32-------------------21-12-21-12-----
-3313313313313331--4--4--4--4--41-3313313313313331--3--3--3--3----
[ Tab from: http://www.guitartabs.cc/tabs/p/pantera/message_in_blood_tab.html ]
------------------------------------------------------------------
------------------------------------------------------------------
--------------------------------------------------------------6\--
------------------------------------------------------------------
-----------------32-23-32-23-32-------------------21-12-21-12-----
-3313313313313331--4--4--4--4--41-3313313313313331--3--3--3--3----

                                       vs (rex)
------------------------------|-------|---------------------------
------------------------------|-------|---------------------------
------------------------------|-------|---------------------------
-----4------------------------|-1~----|---------------------------
-3333-----01234321----4---2-2-|-3~-0~-|-3-----3-------------------
------3333--------2222-111-4-4|----2~-|--3-2-1-3-2-1-...----------

(when dime comes in) (after solo) (rpt)                 (back to intro)
--------------------|------------------|------------------|---------
--------------------|------------------|------------------|---------
--------------------|------------------|------------------|---------
--1h4---------------|------------------|------------------|---------
-3----1h4-0h3-------|----1-3h4p3-1-1---|----3-5h6p5-3-3---|---------
-----3---2---1-11---|-331-3-------3-12-|-553-5-------5-34-|---------

shred on dudes!
Comments