Pantera - Medicine Man Chords & Tabs

 

Medicine Man Chords & Tabs

Pantera Chords & Tabs

Version: 1 Type: Tab 0 ratings
1 star 2 stars 3 stars 4 stars 5 stars
comments

Medicine Man Tab

   
Medicine Man - Pantera
tab by Ben Sheppard, benjamintx@yahoo.com

All the parts are here except for the solos and 
they're relatively in the right place, but it's up 
to you to place all them all. If you can't place them, 
you probably can't play them so forget it.

For easy Dimebag tone, set your amps "mid" to 0
and "high" and "low" or "treble" and "bass" to 10
distortion or gain of courseset to 10
and I prefer the bridge pickup (especially a humbucker)

~ - vibrato
h - hammer-on
p - pull-off
\ - slide

This uses dropped D tuning  low to hi: D A D G B E

Intro and Chorus Riff (palm mute as you see fit)
E--------------------------------
B--------------------------------
G--------------------------------
D-0---------------3-0------------
A-0-------------2-3-0------------
D-0-0-0-0-0-0-0-2-3-0-0-0-0-0----

The End of the Chorus Riff
E---------------------------------
B---------------------------------
G---------------------------------
D-0-----------------3--3-5--------
A-0---------------2-3--3-5--------
D-0-0-0-0-0-0-0-0-2-3--3-5--------
[ Tab from: http://www.guitartabs.cc/tabs/p/pantera/medicine_man_tab.html ]
Lead Fill (sometimes it's played 
with the last part palm muted)
E---------------------------------------------------
B---------------------------------------------------
G---5-7-8-5h7p5---5---------------------------------
D---------------8---7-8-5h7p5---5-------------------
A-----------------------------8---8h10p8\6-8-5~~~~--
D---------------------------------------------------

Killer Hook (pick clean)
E-------------------
B-------------------
G-------------------
D-------------------
A-------2---3-------
D-0-2-3---3---------

After Killer Hook
E-----------------------
B-----------------------
G-----------------------
D-12--10--8---8--5-3----
A-12--10--8---8--5-3----
D-12--10--8---8--5-3----

Verse (cut the volume knob  --------->      Pre-Killer Hook at the end of verse
hard before you play this)  volume back up  (make that vibrato big and sick)
E------------------------------|---------------------------------------
B--2--------2------------------|---------------------------------------
G--1--------2------------------|---------------------------------------
D------------------------------|---------------------------------------
A------------------------------|--------------------2-2----------------
D------------------------------|--------------0-2-3-----3~~~~~---------
Comments