Pantera - It Makes Them Disappear Chords & Tabs

 

It Makes Them Disappear Chords & Tabs

Pantera Chords & Tabs

Version: 1 Type: Tab 0 ratings
1 star 2 stars 3 stars 4 stars 5 stars
comments

It Makes Them Disappear Tab

From:Lee Catling[sirlee17@hotmail.com]
Sent:Friday, May 19, 2000 11:33
To:alexk@atmetal.com
subject:PanterA

It Makes Them Disappear-PanterA

Tune down half step
[ Tab from: http://www.guitartabs.cc/tabs/p/pantera/it_makes_them_disappear_tab.html ]
use bends where you need them
riff1
---------------------------
---------------------------
---------------------------
---------------------------
---------------------------
0-541-0-652-0-541-0-62-----
riff2
----------------------------------------------
----------------------------------------------
----------------------------------------------
2----2-2----2-2----2-2----2----2----2---------
2-55-2-2-33-2-2-55-2-2-33-2-33-2-33-2---------
0-33-0-0-11-0-0-33-0-0-11-0-11-0-11-0---------
pm all of riff2
riff3

----------------------------------------------
----------------------------------------------
------------------------x-x-x-x---------------
------------------------x-x-x-x---------------
------------------------x-x-x-x---------------
0h1-1-1-1p0-0-0h1-1-1p0-x-x-x-x---------------

That is all I got if you know more e-mail me thanks
Comments