Pantera - Immortally Insane Chords & Tabs

 

Immortally Insane Chords & Tabs

Pantera Chords & Tabs

Version: 2 Type: Tab 0 ratings
1 star 2 stars 3 stars 4 stars 5 stars
comments

Immortally Insane Tab

   
Band:Pantera
Song:Immortally Insane
Album:Heavy Metal 2000 Soundtrack
tabbed by: J. Bulatao
pordega1@yahoo.com

h=hammer
p=pull off
AH=artificial harmonics
b=bend
~=vibrato
PM=palm mute

main riff

-------------------------------|
-------------------------------|
-------------------------------|
-------------------------------|
---2---------------------------|
---0--h3p0h3p0-5/6~~~~~~~------|

-------------------------------|
-------------------------------|
-------------------------------|
-------------------------------|
---7-----6-----5---------------|
-----6~-----5~-----3~----------|

-------------------------------|
-------------------------------|
-------------------------------|
-------------------------------|
-------------------------------|
---0-3-0-3-0-3h5---------------|
   PM.......


bridge

---------------------------------------------|
---------------------------------------------|
---------------------------------------6b7---|
---------------------------------------5b6---|
---------------------------------------------|
---5b6--5--5b6--5-----5b6--5--5b6--5---------|
                                       AH


----------------------------------------------|
----------------------------------------------|
----------------------------------------------|
----------------------------------------------|
----------------------------------------------|
---5b6--5--5b6--5-----5b6--5--5b6-----3-------|

solo
[ Tab from: http://www.guitartabs.cc/tabs/p/pantera/immortally_insane_tab_ver_2.html ]
----------------------------------------------|
----------------------------------------------|
---3-----5b6----------------------------------|
---5b7-------5~~~~------3-----5b6-------------|
------------------------5b7--------4~~~~~-----|
----------------------------------------------|
   AH    AH  AH         AH    AH   AH

------------------------------------------------------|
------------------------------------------------------|
---0-3-0-3-0-3-6~~~~~~~----6-5-3-0---6-5-3-0----------|
----------------------------------------------5~~~~---|
------------------------------------------------------|
------------------------------------------------------|
   AH...........

------------------------2542542542-----------|(tremolo pick)
----------------------------------4~~~~------|
---3----------3------------------------------|
---5b7~~~~~---5b7~~~~------------------------|
---------------------------------------------|
---------------------------------------------|
   AH         AH                  AH


---4654-543-432----------------------|(tremolo pick)
---------------2~~~~-----------------|
-------------------------------------|
-------------------------------------|
-------------------------------------|
-------------------------------------|
               AH

at the end of the song, there is a variation of the
main riff that goes like this

-------------------------------|
-------------------------------|
-------------------------------|
-------------------------------|
---2--5--0--5--0--7/8~~~~------|
---0--3--0--3--0--5/6~~~~------|
   PM...........    .....let ring
Comments