Pantera - Im Broken Chords & Tabs

 

Im Broken Chords & Tabs

Pantera Chords & Tabs

Version: 1 Type: Tab 5 ratings
1 star 2 stars 3 stars 4 stars 5 stars
comments

Im Broken Tab

this is the real tabs for it because i bought a $45 tab book of pantera
starting part
[ Tab from: http://www.guitartabs.cc/tabs/p/pantera/im_broken_tab.html ]
play this a couple times
----------------------------------------
----------------------------------------
------------------------------------------
-0/2----0/2---0------------------------------------
-----------------2/0------2--------------------
----------------------3---0--------------------

then...
----------------------------------------
----------------------------------------
------------------------------------------
-0/2----0/2---0------------------------5/7--5----------
-----------------2/0------2-----5/7--5-------------
----------------------3---0--------------------

Comments