Pantera - Ill Cast A Shadow Chords & Tabs

 

Ill Cast A Shadow Chords & Tabs

Pantera Chords & Tabs

Version: 1 Type: Bass Tab 0 ratings
1 star 2 stars 3 stars 4 stars 5 stars
comments

Ill Cast A Shadow Bass Tab

Band- Pantera
Song- Ill Cast A Shadow

Tuning: D A D G down one and one half steps


intro
------------------------------------------------------------------|
------------------------------------------------------------------|
---------8-----5-5---------8----5-5---------8-----5-5---------6~--|
--0-0-0-0---0-0-----0-0-0-0--0-0-----0-0-0-0---0-0-----0-0-0-0----|

chorus   "when I die..."
-------------------------3------7p5-0------|
-----------------------3------5------------|
---------8----5------1------3--------------|
--0-0-0-0--0-0---0h3-----------------------|

------------------------7p5-0-------3--|
----------------------5-----------3----|
---------8----5---0h3-----------1------|
--0-0-0-0--0-0----------------3--------|

verse   "the end will crush the light..."
-----------------------------------------------------|
-----------------------------------------------------|
-----------------------------------------------------|
--3p0-3p0-3p0---3/8-6~-----3p0-3p0-3p0---3/8-6~--9~--|
[ Tab from: http://www.guitartabs.cc/tabs/p/pantera/ill_cast_a_shadow_btab.html ]
--------------------------------------------------------|
--------------------------------------------------------|
--------------------------------------------------------|
--3p0-3p0-3p0---3/8-6~-----3p0-3p0-3p0---3/8-6~--9~--1--|

breakdown
(this part uses a wah pedal, so if you have one,
you'll be able to achieve the same greatness!)
-----------------------|
-----------------------|
-----------------------|
--------5^-0---5^-0-3--|
WAH THIS BITCH LIKE HELL!!!

--------------------------------------------------------|
--------------------------------------------------------|
--------------------------------------------------------|
--0-3-5-6-5-0-3-5-0-1-3-0-0----0-3-5-6-5-0-3-5-0-1-3-0--|

outro
(another wah part, and probably the best
outro I've ever heard in my  fucking life)
------------------------|
------------------------|
------------------------|
--8-8--7-6-5-4-3-2-1-0--|

--------------------------------------------------------------------|
----------3p---3~----------3p---3~----------3p---3~-----------------|
----0h3h5----0-------0h3h5----0-------0h3h5----0--------------------|
--0----------------0----------------0---------------5^(6)-0-3-5-3---|
WAH THIS MOTHER FUCKER!!!
Comments