Pantera - I Cant Hide Chords & Tabs

 

I Cant Hide Chords & Tabs

Pantera Chords & Tabs

Version: 1 Type: Tab 0 ratings
1 star 2 stars 3 stars 4 stars 5 stars
comments

I Cant Hide Tab


Author/Artist: Pantera
Title: I cant hide
Album: Official Live 101 proof
Transcribed by: Martin Kawaler
Email: knotterfan@hotmail.com

this is the whole song and the first solo. IF anyone has the second part of the
solo please email it to me at knotterfan@hotmail.com

RIff1
------------------------------------------------------------------------------
------------------------------------------------------------------------------
------------------------------------------------------------------------------
--7-77777777777777------------------------------------------------------------
--5-55555555555555--8-888888--5-555555----------------------------------------
--------------------6-666666--3-333333----------------------------------------

Riff2
------------------------------------------------------------------------------
------------------------------------------------------------------------------
------------------------------------------------------------------------------
--------7---8---10---8---7----------------------------------------------------
-----55---5---5----5---5----88888888--55555555--------------------------------
----------------------------66666666--33333333--------------------------------

Riff3
-------------------------|----------------------------------------------------
-------------------------|----------------------------------------------------
-------------------------|----------------------------------------------------
-------------------------|----------------------------------------------------
---5555555555--4-4-------|--5555555555---\------------------------------------
---3333333333--2-2-------|--3333333333---\------------------------------------
                 {1,2,3}     {4}

Riff4
-------------------------|----------------------------------------------------
-------------------------|----------------------------------------------------
-------------------------|----------------------------------------------------
---55555555--------------|----------------------------------------------------
---33333333-66666666-----|---8--7--6--5--4-3---0------------------------------
------------44444444-----|---6--5--4--3--2-1---0------------------------------
                 {1,2,3}    {4}              {w/bar}

[ Tab from: http://www.guitartabs.cc/tabs/p/pantera/i_cant_hide_tab.html ]
Solo 1
---10---10---10--10--10------------10----------------------10--10--10--10-----
---13b--13b--13b-13b-13b--------10-------------------------13b-13b-13b-13b----
---------------------------12br-------12b-12br-12-10--------------------------
-----------------------------------------------------12-----------------------
------------------------------------------------------------------------------
------------------------------------------------------------------------------


-10---------------------------------------------------------------------------
-13b--------------------------------------------------------------------------
------14p13p12p10-14p13p12p10-14p13p12p10-14p13p12p10-14p13p12p10-------------
------------------------------------------------------------------------------
------------------------------------------------------------------------------
------------------------------------------------------------------------------

Interlude
------------------------------------------------------------------------------
------------------------------------------------------------------------------
------------------------------------------------------------------------------
---5--5--5--5-5--5------------------------------------------------------------
---3--3--3--3-3--3------------------------------------------------------------
------------------------------------------------------------------------------
 PM-  -  -  - -  -

Riff5
------------------------------------------------------------------------------
------------------------------------------------------------------------------
------------------------------------------------------------------------------
----5--5--5--5--5--5--5--5--5--5--5--5--5--5--5--5--5--5--5--5----------------
----3--3--3--3--3--3--3--3--3--3--3--3--3--3--3--3--3--3--3--3----0-----------
------------------------------------------------------------------0-----------
 PM -  -  -  -  -  -  -  -  -  -  -  -  -  -  -  -  -  -  -  -  {whammy bar}

Riff6
------------------------------------------------------------------------------
------------------------------------------------------------------------------
------------------------------------------------------------------------------
----5--5--5--5--5--5--5--5--5--5----\\\---------------------------------------
----3--3--3--3--3--3--3--3--3--3----\\\---------------------------------------
------------------------------------\\\---------------------------------------
                                  {whammy bar Dive}



SONG ORDER

Riff1 x2 (1st time without distortion)
Riff2 x3 (Riff1 is played by 2nd Guitar)
Riff3 x1
Riff2 x2
Riff1 x2
Riff2 x2
Riff3 x1
Riff2 x4
Riff4 x1
Riff1 x1 {without Distortion}

Solo 1
Interlude x1
Solo 2
Riff 5 x1
Riff6 x4&1/2
Comments