Pantera - Heresy Chords & Tabs

 

Heresy Chords & Tabs

Pantera Chords & Tabs

Version: 2 Type: Tab 0 ratings
1 star 2 stars 3 stars 4 stars 5 stars
comments

Heresy Tab

   
                            HERESY - PANTERA
                            ----------------

 Note lengths are written below the measures :
   w - whole note
   h - half note
   q - quarter note
   e - eight note
   s - sixteenth note
   t - thirty-second note

 Rest are noted as capitalized note lengths ie:
   W - whole rest
   H - half rest
   Q - quarter rest
   E - eight rest
   S - sixteenth rest
   T - thirty-second rest

 + is used to show slurs between notes, eg slide up from 5 to 7 without
  picking the 7 would be notated like :
   |---5/7----
       e+e
   sliding up with picking the 7 would be notated like :
   |---5/7----
       e e

 Notes without a note length are cue notes.


  h - hammer on
  p - pull off
  b - bend (amount of bend above the measure)
  r - release bend
  x - muffled string
  / - slide up
  \ - slide down
  ~ - vibrato (vib. above a measure means a more exaggerated vibrato)


                      HERESY - PANTERA   GUITAR
                      -------------------------

---||-----------------------|---------------------------|
---||-----------------------|---------------------------|
---||-----------------------|---------------------------|
---||-----------------------|---------------------------|
---||-----------------------|---------------------------|
-5-||-(5)-5-4-4-4-4-4-3-3-3-|-3-3-3_-3_-3_-2+-2+-2+-2-5-|
 e  +  e  e s s e e e s s e   e e s  s  e  s  s  e  e e +
Harm.----------------------------------------------------
                                   ^        ^
                                   3_ = just before the 3rd fret
                                            2+ = just after the 2nd fret

|-----------------------|---------------------------|
|-----------------------|---------------------------|
|-----------------------|---------------------------|
|-----------------------|---------------------------|
|-----------------------|---------------------------|
|-(5)-5-4-4-4-4-4-3-3-3-|-3-3-3_-3_-3_-2+-2+-2+-2-5-|
+  e  e s s e e e s s e   e e s  s  e  s  s  e  e e +
-----------------------------------------------------

|-----------------------|---------------------------|
|-----------------------|---------------------------|
|-----------------------|---------------------------|
|-----------------------|---------------------------|
|-----------------------|---------------------------|
|-(5)-5-4-4-4-4-4-3-3-3-|-3-3-3_-3_-3_-2+-2+-2+-2-5-|
+  e  e s s e e e s s e   e e s  s  e  s  s  e  e e +
-----------------------------------------------------

|-----------------------|---------------------------||
|-----------------------|---------------------------||
|-----------------------|---------------------------||
|-----------------------|---------------------------||
|-----------------------|---------------------------||
|-(5)-5-4-4-4-4-4-3-3-3-|-3-3-3_-3_-3_-2+-2+-2+-2-0-||
+  e  e s s e e e s s e   e e s  s  e  s  s  e  e e
-------------------------------------------------|

|-----------------------|-----------------------|-----------------------|
|-----------------------|-----------------------|-----------------------|
|-----------------------|-----------------------|-----------------------|
|-----------------------|-----------------------|-----------------------|
|-----------------------|-----------------------|-----------------------|
|---0-2-2-0-0-0-0-2-2-0-|-0-0-0-4-4-0-0-0-0-3-0-|---0-2-2-0-0-0-0-2-2-0-|
  E e s s e s s e s s e   s s e s s e s s e e e   E e s s e s s e s s e

|-----------------------------|-----------------------|
|-----------------------------|-----------------------|
|-----------------------------|-----------------------|
|-----------------------------|-----------------------|
|-----------------------------|-----------------------|
|-0-0-0-0-4-0-0-0-0-0-0-0-3-0-|---0-2-2-0-0-0-0-2-2-0-|
  s s s s s s s s s s s s e e   E e s s e s s e s s e

|-----------------------|-----------------------|---------------||
|-----------------------|-----------------------|---------------||
|-----------------------|-----------------------|---------------||
|-----------------------|-----------------------|---------------||
|-----------------------|-----------------------|---------------||
|-0-0-0-4-4-0-0-0-0-3-0-|---0-2-2-0-0-0-0-2-2-0-|-0-0-------3-0-||
  s s e s s e s s e e e   E e s s e s s e s s e   s s E Q Q e e

||-------------------------|-----------------------|-----------------------|
||-------------------------|-----------------------|-----------------------|
||-o-----------------------|-----------------------|-----------------------|
||-o-----------------------|-----------------------|-----------------------|
||-------------------------|-----------------------|-----------------------|
||-----0-2-2-0-0-0-0-2-2-0-|-0-0-0-4-4-0-0-0-0-3-0-|---0-2-2-0-0-0-0-2-2-0-|
     E e s s e s s e s s e   s s e s s e s s e e e   E e s s e s s e s s e

                               4x
|-------------------------------||
|-------------------------------||
|-----------------------------o-||
|-----------------------------o-||
|-------------------------------||
|-0-0-0-0-4-0-0-0-0-0-0-0-3-0---||
  s s s s s s s s s s s s e e

                     |1,2,3.              |4.
||-------------------|-------------------||---------------||
||-------------------|-------------------||---------------||
||-o-----------------|-----------------o-||---------------||
||-o-----------------|-----------------o-||---------6---6-||
||-------9---8---6-8-|-9---8---5-6-7-----||-9---8---4-6-4-||
||-----0-7-0-6-0-4-6-|-7-0-6-0-3-4-5-0---||-7-0-6-0---4---||
     e e e e e e e e   e e e e e e e e      e e e e q q q
                                                    { 3 }

 verse 1
|-----------------|---------------|-----------------|---------------|
|-----------------|---------------|-----------------|---------------|
|-----------------|---------------|-----------------|---------------|
|-----------------|---------------|-----------------|---------------|
|-----------------|-----------5-6-|-----------------|-----------3-4-|
|-0-0-0-0-0-0-0-0-|-0-0-0-0-0-3-4-|-0-0-0-0-0-0-0-0-|-0-0-0-0-0-1-2-|
  e e e e e e e e   e e e e e q e   e e e e e e e e   e e e e e q e

|-----------------|---------------|-----------------|---------------||
|-----------------|---------------|-----------------|---------------||
|-----------------|---------------|-----------------|---------------||
|-----------------|---------------|-----------------|---------8---8-||
|-----------------|-----------5-6-|-----------------|---------6-8-6-||
|-0-0-0-0-0-0-0-0-|-0-0-0-0-0-3-4-|-0-0-0-0-0-0-0-0-|-0-0-0-0---6---||
  e e e e e e e e   e e e e e q e   e e e e e e e e   e e e e q q q
                                                              { 3 }



|-----------------|---------------|-----------------|---------------|
|-----------------|---------------|-----------------|---------------|
|-----------------|---------------|-----------------|---------------|
|-----------------|---------------|-----------------|---------------|
|-----------------|-----------5-6-|-----------------|-----------3-4-|
|-0-0-0-0-0-0-0-0-|-0-0-0-0-0-3-4-|-0-0-0-0-0-0-0-0-|-0-0-0-0-0-1-2-|
  e e e e e e e e   e e e e e q e   e e e e e e e e   e e e e e q e

|-----------------|---------------|-----|---------------||
|-----------------|---------------|-----|---------------||
|-----------------|---------------|-----|---------------||
|-----------------|---------------|-----|---------4-2-5-||
|-----------------|-----------5-6-|-----|---3---3---0-3-||
|-0-0-0-0-0-0-0-0-|-0-0-0-0-0-3-4-|-----|-----3---------||
  e e e e e e e e   e e e e e q e    W    e e e e e q e

pre-chorus
|-----------------|-----------------|-----------------|-----------------|
|-----------------|-----------------|-----------------|-----------------|
|-----------------|-----------------|-----------------|-----------------|
|-6-6-6-----------|-------3-4-4-4-5-|-6-6-6-----------|---------------5-|
|-4-4-4-7-8-8-8-4-|-5-5-5-1-2-2-2-3-|-4-4-4-7-8-8-6\4-|---2---2---2---3-|
|-------5-6-6-6-2-|-3-3-3-----------|-------5-6-6-4\2-|-0-0-0-0-0-0-0---|
  e e e e e e e e   e e e e e e e e   e e e e e e e+e   e e e e e e e e

|-----------------|-----------------|-----------------||
|-----------------|-----------------|-----------------||
|-----------------|-----------------|-----------------||
|-6-6-6-----------|-------3-4-4-4-5-|-6-6-6-----------||
|-4-4-4-7-8-8-8-4-|-5-5-5-1-2-2-2-3-|-4-4-4-7-8-8-4---||
|-------5-6-6-6-2-|-3-3-3-----------|-------5-6-6-2-0-||
  e e e e e e e e   e e e e e e e e   e e e e e e e e

 chorus
||-------------------------|-----------------------|-----------------------|
||-------------------------|-----------------------|-----------------------|
||-o-----------------------|-----------------------|-----------------------|
||-o-----------------------|-----------------------|-----------------------|
||-------------------------|-----------------------|-----------------------|
||-----0-2-2-0-0-0-0-2-2-0-|-0-0-0-4-4-0-0-0-0-3-0-|---0-2-2-0-0-0-0-2-2-0-|
     E e s s e s s e s s e   s s e s s e s s e e e   E e s s e s s e s s e

                               2x
|-------------------------------||
|-------------------------------||
|-----------------------------o-||
|-----------------------------o-||
|-------------------------------||
|-0-0-0-0-4-0-0-0-0-0-0-0-3-0---||
  s s s s s s s s s s s s e e

                                                                2/4
|-----------------|--------------|-----------------|------------|-----||
|-----------------|--------------|-----------------|------------|-----||
|-----------------|--------------|-----------------|------------|-----||
|-----------------|--------------|-----------------|------------|-----||
|-----9---8---6-8-|-9---8---6-8--|-----9---8---6-8-|-9-8--4-5---|-----||
|---0-7-0-6-0-4-6-|-7-0-6-0-4-6--|-0-0-7-0-6-0-4-6-|-7-6--2-3---|-----||
  e e e e e e e e   e e e e e q.   e e e e e e e e   e q. e e Q    H

4/4
 verse 2
|-----------------|---------------|-----------------|---------------|
|-----------------|---------------|-----------------|---------------|
|-----------------|---------------|-----------------|---------------|
|-----------------|---------------|-----------------|---------------|
|-----------------|-----------5-6-|-----------------|-----------3-4-|
|-0-0-0-0-0-0-0-0-|-0-0-0-0-0-3-4-|-0-0-0-0-0-0-0-0-|-0-0-0-0-0-1-2-|
  e e e e e e e e   e e e e e q e   e e e e e e e e   e e e e e q e

|-----------------|---------------|-----------------|---------------||
|-----------------|---------------|-----------------|---------------||
|-----------------|---------------|-----------------|---------------||
|-----------------|---------------|-----------------|---------8---8-||
|-----------------|-----------5-6-|-----------------|---------6-8-6-||
|-0-0-0-0-0-0-0-0-|-0-0-0-0-0-3-4-|-0-0-0-0-0-0-0-0-|-0-0-0-0---6---||
  e e e e e e e e   e e e e e q e   e e e e e e e e   e e e e q q q
                                                              { 3 }

|-----------------|---------------|-----------------|---------------|
|-----------------|---------------|-----------------|---------------|
|-----------------|---------------|-----------------|---------------|
|-----5\3-----5\3-|-----5\3-6---6-|-----5\3-----5\3-|-----5\3-8---8-|
|-----3\1-----3\1-|-----3\1-4-6-4-|-----3\1-----3\1-|-----3\1-6-8-6-|
|-0-0-----0-0-----|-0-0-------4---|-0-0-----0-0-----|-0-0-------6---|
  e e e+e e e e+e   e e e+e q q q   e e e+e e e e+e   e e e+e q q q
                            { 3 }                             { 3 }

|-----------------|---------------|-----------------|---------------||
|-----------------|---------------|-----------------|---------------||
|-----------------|---------------|-----------------|---------------||
|-----5\3-----5\3-|-----5\3-6---6-|-----5\3-----5\3-|-----5\3-------||
|-----3\1-----3\1-|-----3\1-4-6-4-|-----3\1-----3\1-|-----3\1-6-7-8-||
|-0-0-----0-0-----|-0-0-------4---|-0-0-----0-0-----|-0-0-----4-5-6-||
  e e e+e e e e+e   e e e+e q q q   e e e+e e e e+e   e e e+e q q q
                            { 3 }                             { 3 }

|-----------------|---------------|-----------------|---------------|
|-----------------|---------------|-----------------|---------------|
|-----------------|---------------|-----------------|---------------|
|-----------------|---------------|-----------------|---------------|
|-----------------|-----------5-6-|-----------------|-----------3-4-|
|-0-0-0-0-0-0-0-0-|-0-0-0-0-0-3-4-|-0-0-0-0-0-0-0-0-|-0-0-0-0-0-1-2-|
  e e e e e e e e   e e e e e q e   e e e e e e e e   e e e e e q e

|-----------------|---------------|-----|---------------||
|-----------------|---------------|-----|---------------||
|-----------------|---------------|-----|---------------||
|-----------------|---------------|-----|---------4-2-5-||
|-----------------|-----------5-6-|-----|---3---3---0-3-||
|-0-0-0-0-0-0-0-0-|-0-0-0-0-0-3-4-|-----|-----3---------||
  e e e e e e e e   e e e e e q e    W    e e e e e q e
[ Tab from: http://www.guitartabs.cc/tabs/p/pantera/heresy_tab_ver_2.html ]
pre-chorus
|-----------------|-----------------|-----------------|-----------------|
|-----------------|-----------------|-----------------|-----------------|
|-----------------|-----------------|-----------------|-----------------|
|-6-6-6-----------|-------3-4-4-4-5-|-6-6-6-----------|---------------5-|
|-4-4-4-7-8-8-8-4-|-5-5-5-1-2-2-2-3-|-4-4-4-7-8-8-6\4-|---2---2---2---3-|
|-------5-6-6-6-2-|-3-3-3-----------|-------5-6-6-4\2-|-0-0-0-0-0-0-0---|
  e e e e e e e e   e e e e e e e e   e e e e e e e+e   e e e e e e e e

|-----------------|-----------------|-----------------||
|-----------------|-----------------|-----------------||
|-----------------|-----------------|-----------------||
|-6-6-6-----------|-------3-4-4-4-5-|-6-6-6-----------||
|-4-4-4-7-8-8-8-4-|-5-5-5-1-2-2-2-3-|-4-4-4-7-8-8-4---||
|-------5-6-6-6-2-|-3-3-3-----------|-------5-6-6-2-0-||
  e e e e e e e e   e e e e e e e e   e e e e e e e e

 chorus
||-------------------------|-----------------------|-----------------------|
||-------------------------|-----------------------|-----------------------|
||-o-----------------------|-----------------------|-----------------------|
||-o-----------------------|-----------------------|-----------------------|
||-------------------------|-----------------------|-----------------------|
||-----0-2-2-0-0-0-0-2-2-0-|-0-0-0-4-4-0-0-0-0-3-0-|---0-2-2-0-0-0-0-2-2-0-|
     E e s s e s s e s s e   s s e s s e s s e e e   E e s s e s s e s s e

                               2x       2/4
|-------------------------------||-----|-----||
|-------------------------------||-----|-----||
|-----------------------------o-||-----|-----||
|-----------------------------o-||-----|-----||
|-------------------------------||-----|-----||
|-0-0-0-0-4-0-0-0-0-0-0-0-3-0---||-----|-----||
  s s s s s s s s s s s s e e       W     H

||------------------|-----|----------------|-----|
||------------------|-----|----------------|-----|
||-o----------------|-----|----------------|-----|
||-o----------------|-----|----------------|-5---|
||---------6-----4--|-2---|-------6-----4--|-3---|
||---0-0-0-4-0-0-2--|-0---|-0-0-0-4-0-0-2--|-----|
     e e e e e e q    w     e e e e e e q    w

                                                        2x
|----------------|-----|----------------|----------------||
|----------------|-----|----------------|----------------||
|----------------|-----|----------------|--------------o-||
|----------------|-----|-------5-----4--|-3--2---------o-||
|-------6-----4--|-2---|-0-0-0-3-0-0-2--|-1--0--7-5-3----||
|-0-0-0-4-0-0-2--|-0---|----------------|-------5-3-1----||
  e e e e e e q    w     e e e e e e q    q  q  e e q

  w/Guitar solo
||------------------|-----|----------------|-----|
||------------------|-----|----------------|-----|
||-o----------------|-----|----------------|-----|
||-o----------------|-----|----------------|-5---|
||---------6-----4--|-2---|-------6-----4--|-3---|
||---0-0-0-4-0-0-2--|-0---|-0-0-0-4-0-0-2--|-----|
     e e e e e e q    w     e e e e e e q    w

                                                        2x
|----------------|-----|----------------|----------------||
|----------------|-----|----------------|----------------||
|----------------|-----|----------------|--------------o-||
|----------------|-----|-------5-----4--|-3--2---------o-||
|-------6-----4--|-2---|-0-0-0-3-0-0-2--|-1--0--7-5-3----||
|-0-0-0-4-0-0-2--|-0---|----------------|-------5-3-1----||
  e e e e e e q    w     e e e e e e q    q  q  e e q

||-------------------|-----------------|-----------------|-----------------|
||-------------------|-----------------|-----------------|-----------------|
||-o-----------------|-----------------|-----------------|-----------------|
||-o-----------------|-----------------|-----------------|-----------------|
||---2-2-2-5-2-2-2-2-|-2-5-2-2-2-2-2-2-|-2-2-2-5-2-2-2-2-|-2-5-2-2-2-2-2-2-|
||---0-0-0-3-0-0-0-0-|-0-3-0-0-0-0-0-0-|-0-0-0-3-0-0-0-0-|-0-3-0-0-0-0-0-0-|
     e e e e e e e e   e e e e e e e e   e e e e e e e e   e e e e e e e e

                                                                    2x
|-----------------|-----------------|-----------------|--------------||
|-----------------|-----------------|-----------------|--------------||
|-----------------|-----------------|-----------------|------------o-||
|-----------------|-----------------|-----------------|------------o-||
|-2-2-2-5-2-2-2-2-|-2-5-2-2-2-2-2-2-|-7-7-7-7-7-7-7-7-|-10-9-7-5-3---||
|-0-0-0-3-0-0-0-0-|-0-3-0-0-0-0-0-0-|-5-5-5-5-5-5-5-5-|-8--7-5-3-1---||
  e e e e e e e e   e e e e e e e e   e e e e e e e e   q  q e e q

||-------------------|-----------------|-----------------|-----------------|
||-------------------|-----------------|-----------------|-----------------|
||-o-----------------|-----------------|-----------------|-----------------|
||-o-----------------|-----------------|-----------------|-----------------|
||---4-2-2-5-2-2-4-2-|-2-5-2-2-4-4-4-4-|-4-2-2-5-2-2-4-2-|-2-5-2-2-4-4-4-4-|
||---2-0-0-3-0-0-2-0-|-0-3-0-0-2-2-2-2-|-2-0-0-3-0-0-2-0-|-0-3-0-0-2-2-2-2-|
     e e e e e e e e   e e e e e e e e   e e e e e e e e   e e e e e e e e

                                                      |1,2,3.
|-----------------|-----------------|-----------------|---------------||
|-----------------|-----------------|-----------------|---------------||
|-----------------|-----------------|-----------------|-------------o-||
|-----------------|-----------------|-5-4-2-------5-4-|-2-----5-4-2-o-||
|-4-2-2-5-2-2-4-2-|-2-5-2-2-4-4-4-4-|-3-2-0-4---2-3-2-|-0-4-2-3-2-0---||
|-2-0-0-3-0-0-2-0-|-0-3-0-0-2-2-2-2-|-------2---0-----|---2-0---------||
  e e e e e e e e   e e e e e e e e   e e e e+e e e e   e q e e e q

|4.
|---------------|-----------------|---------------|-------||
|---------------|-----------------|---------------|-------||
|---------------|-----------------|---------------|-------||
|-2-----5-4-2---|-5-4-2-------5-4-|-2-----5-4-2---|-------||
|-0-4-2-3-2-0-4-|-3-2-0-4---2-3-2-|-0-4-2-3-2-0-4-|-5-----||
|---2-0-------2-|-------2---0-----|---2-0-------2-|-3-----||
  e q e e e e e   e e e e+e e e e   e q e e e e e   w

  Outro chorus
||-------------------------|-----------------------|-----------------------|
||-------------------------|-----------------------|-----------------------|
||-o-----------------------|-----------------------|-----------------------|
||-o-----------------------|-----------------------|-----------------------|
||-------------------------|-----------------------|-----------------------|
||-----0-2-2-0-0-0-0-2-2-0-|-0-0-0-4-4-0-0-0-0-3-0-|---0-2-2-0-0-0-0-2-2-0-|
     E e s s e s s e s s e   s s e s s e s s e e e   E e s s e s s e s s e

                               2x
|-------------------------------||
|-------------------------------||
|-----------------------------o-||
|-----------------------------o-||
|-------------------------------||
|-0-0-0-0-4-0-0-0-0-0-0-0-3-0---||
  s s s s s s s s s s s s e e

|-----------------------|-------------------------|
|-----------------------|-------------------------|
|-----------------------|-------------------------|
|-----------------------|-------------------------|
|-----------------------|-------------------------|
|---0-2-2-0-0-0-0-2-2-0-|-0-0-0-2-2-0-0-0-0-2-2-0-|
  E e s s e s s e s s e   s s e s s e s s e s s e

|---------------------------------|---------------------------------|
|---------------------------------|---------------------------------|
|---------------------------------|---------------------------------|
|---------------------------------|---------------------------------|
|-5-6-6-6-6-6-6-6-6-6-6-6-6-6-6-6-|-6-6-6-6-6-6-6-6-6-7-7-7-7-7-7-7-|
|-3-4-4-4-4-4-4-4-4-4-4-4-4-4-4-4-|-4-4-4-4-4-4-4-4-4-5-5-5-5-5-5-5-|
  s s s s s s s s s s s s s s s s   s s s s s s s s s s s s s s s s

|-----------------------|-----------------------|
|-----------------------|-----------------------|
|-----------------------|-----------------------|
|-----------------------|-----------------------|
|-----------------------|-----------------------|
|-0-0-2-2-0-0-0-0-2-2-0-|-0-0-2-2-0-0-0-0-2-2-0-|
  e e s s e s s e s s e   e e s s e s s e s s e

|---------------------------------|---------------------------------|
|---------------------------------|---------------------------------|
|---------------------------------|---------------------------------|
|---------------------------------|---------------------------------|
|-5-6-6-6-6-6-6-6-6-6-6-6-6-6-6-6-|-6-6-6-6-6-6-6-6-6-7-7-7-7-7-7-7-|
|-3-4-4-4-4-4-4-4-4-4-4-4-4-4-4-4-|-4-4-4-4-4-4-4-4-4-5-5-5-5-5-5-5-|
  s s s s s s s s s s s s s s s s   s s s s s s s s s s s s s s s s

|-------------------|---------||
|-------------------|---------||
|-------------------|---------||
|-5--7--6--8-----9--|---------||
|-3--5--4--6--8--7--|-2-------||
|-------------6-----|-0-------||
  q  q  q  q  q  q    e E Q H
  {  3  }  {  3  }


                     HERESY - PANTERA    GUITAR SOLO
                     -------------------------------

         Guitar solo
--------||-/5----------|-(5)--------|---------------|-------------|
------X-||-------------|------------|---------------|-4-----------|
--------||-------------|------------|-------4-3-2---|-------------|
--------||-------------|------------|---2-3-------5-|-------------|
--------||-------------|------------|---------------|-------------|
--------||-------------|------------|---------------|-------------|
  H Q q     w          +  w           Q e e e e e e   w
            w/bar~~~~~~~~~~~~~~~~~                    vib~~~~~~~~

|-22--17-19-b17r19-17----|--------22-----------------|-b17r18----17-18-17-|
|---------------------20-|-b19r20----17-b15r17-15-17-|--------------------|
|------------------------|---------------------------|--------------------|
|------------------------|---------------------------|--------------------|
|------------------------|---------------------------|--------------------|
|------------------------|---------------------------|--------------------|
| q   e  e  e+  e  e  e    e+  e  e  e  e+  e  e  e       H.     e  e  e
|           ^              ^            ^              ^         {  3  }
|        bend down w/bar(b) & release(r)
|-19---------------------|---------------------------|--------------------|
|-----19-20-b18r20-19----|---------------------------|--------------------|
|---------------------21-|-b19r21--------------------|-b19r20----19-20-19-|
|------------------------|--------21-22-b21r22-21-22-|--------------------|
|------------------------|---------------------------|--------------------|
|------------------------|---------------------------|--------------------|
  q   e  e  e+  e  e  e    e+  e  e  e  e+  e  e  e       H.     e  e  e
            ^              ^            ^              ^         {  3  }
         bend down w/bar(b) & release(r)

|--------|--------|---------|----------------|------------|
|-18-----|-12-----|-(12)----|----------------|-4----------|
|--------|--------|---------|--------4-3-2---|------------|
|--------|--------|---------|----2-3-------5-|------------|
|--------|--------|---------|----------------|------------|
|--------|--------|---------|----------------|------------|
| w        w      +  w        Q  e e e e e e   w
|          grad. dive w/bar                    vib.~~~~~~~
|--------|--------|---------|
|--------|--------|---------|
|--------|-12-----|-(12)----|
|-20-----|--------|---------|
|--------|--------|---------|
|--------|--------|---------|
  w        w      +  w
           grad. dive w/bar

|-22-20-19-20-19-22-20-19-17-19-17-------|-17----------------------------------|
|----------------------------------20-19-|----20-19-20-19-17-20-19-17-17-------|
|----------------------------------------|-------------------------------19-17-|
|----------------------------------------|-------------------------------------|
|----------------------------------------|-------------------------------------|
|----------------------------------------|-------------------------------------|
| e  e  e  e  e  e  e  e  e  s  s  s  s  | e  e  e  e  e  e  e  e  e  e  e  e
| {  3  }  {  3  }  {  3  }              | {  3  }  {  3  }  {  3  }  {  3  }
|----------------------------------------|----------------------------------------|
|-20-19-17-19-17----19-17----17----------|----------------------------------------|
|----------------19-------19----19-17-16-|-19-17-16-17-16----17-16----16----------|
|----------------------------------------|----------------19-------19----17-17-16-|
|----------------------------------------|----------------------------------------|
|----------------------------------------|----------------------------------------|
  e  e  e  e  e  e  e  e  e  s  s  s  s    e  e  e  e  e  e  e  e  e  s  s  s  s
  {  3  }  {  3  }  {  3  }                {  3  }  {  3  }  {  3  }

|----------------------------------------|------------------------------||
|-17-------------------------------------|------------------------------||
|----19-17-19-17-16-19-17-16-17-16-------|-16---------------------------||
|----------------------------------19-17-|----19-17-19-17-16-17-14b17---||
|----------------------------------------|------------------------------||
|----------------------------------------|------------------------------||
| e  e  e  e  e  e  e  e  e  s  s  s  s  | e  e  e  s  s  s  s     H    ||
| {  3  }  {  3  }  {  3  }              | {  3  }                      ||
|----------------------------------------|------------------------------||
|----------------------------------------|------------------------------||
|----------------------------------------|------------------------------||
|-19-17-16-17-16----17-16----16----------|------------------------------||
|----------------19-------19----19-17-15-|-19-17-15-17-15-14-15-12b15---||
|----------------------------------------|------------------------------||
  e  e  e  e  e  e  e  e  e  s  s  s  s    e  e  e  s  s  s  s     H
  {  3  }  {  3  }  {  3  }                {  3  }
Comments