Pantera - Goddamn Electric Chords & Tabs

 

Goddamn Electric Chords & Tabs

Pantera Chords & Tabs

Version: 2 Type: Tab 0 ratings
1 star 2 stars 3 stars 4 stars 5 stars
comments

Goddamn Electric Tab

                                GODDAMN ELECTRIC
                             As recorded by PanterA
                   (From the 2000 Album REINVENTING THE STEEL)

Transcribed by Alexander Thielmann

tune down 1 1/4 steps

it sounds very close to me
i couldn`t figure out the right timing,so your on your own with that

please send any corrections to:
alexander.thielmann@12move.de

 Solo:                       ~~       ~~        ~~~~~~~

|----------------------------------------|--------------------------|
|----------------------------------------|--------------------------|
|---------------------------------6b8----|--6h8h10-(10)-13h15-13b15-|
|-------------6h=8---6h8-6b7r=6h8-----8--|--------------------------|
|---------6s8------8---------------------|--------------------------|
|-4b6-(4)--------------------------------|--------------------------|



|--------------------------------------------------|
|--------------------------------------------------|
|-(13)pb15-13h15-13b15-13h15-13b15-15-13b15---15---|
|--------------------------------------------------|
|--------------------------------------------------|
|--------------------------------------------------|



|----------------------------|
|----------------------------|
|-13b15---15-13b15-(13)-(13)-|
|----------------------------|
|----------------------------|
|----------------------------|


   ~~~~~~~~~~~~~~


|---------------------12-17p12-17p12-------12--17p12-17p12-------12-|----|
|-15b17-(15)pb17-(15)----------------12h15-----------------12h15----|----|
|-------------------------------------------------------------------|----|
|-------------------------------------------------------------------|----|
|-------------------------------------------------------------------|----|
|-------------------------------------------------------------------|----|


   |--3--|  |--3--|  |--3--|  |--3--|  |--3--|  |--3--|  |--3--|  |--3--|

|-15p12-------------15p12-------------------------------------------------|
|-------15p12-------------15p12-------15p12-------------15p12-------------|
|-------------15p14-------------15p14-------15p14p12----------15p14p12----|
|----------------------------------------------------14----------------14-|
|-------------------------------------------------------------------------|
|-------------------------------------------------------------------------|

[ Tab from: http://www.guitartabs.cc/tabs/p/pantera/goddamn_electric_tab_ver_2.html ]
   ~~~~~~      /2                       ~~~~~
             w/trem. bar
|-15b17===(15)r15b19--12h15p12h15p12----------------|
|------------------------------------15b17-(15)pb17-|
|---------------------------------------------------|
|---------------------------------------------------|
|---------------------------------------------------|
|---------------------------------------------------|



   |--3--|  |--3--|  |--3--|  |--3--|  |--3--|  |--3--|

|-12h14h15p14S17-14-14h17p15p14S19-15-15h19p17p15S19-17----|
|----------------------------------------------------------|
|----------------------------------------------------------|
|----------------------------------------------------------|
|----------------------------------------------------------|
|----------------------------------------------------------|


   T  T           T  T           T  T


|-19s20p17p15p14-19s20p17p15p14-19s20p17p15p14----|
|-------------------------------------------------|
|-------------------------------------------------|
|-------------------------------------------------|
|-------------------------------------------------|
|-------------------------------------------------|


   T  T

|-19s22-20p18p17h18p17-17p15p14-14-15b17rp12----------------------------------------------|
|--------------------------------------------15p13h15p13p12h13p12h13p12-------------------|
|-----------------------------------------------------------------------14p12h14p12p11-12-|
|-----------------------------------------------------------------------------------------|
|-----------------------------------------------------------------------------------------|
|-----------------------------------------------------------------------------------------|



   ~~~~ /1     /1 1/2 /1   /1 1/2  \6
      bendings w/trem. bar
|----------------------------------------|
|----------------------------------------|
|-----12b14--12b15--14b16--12b15-(12)----|
|-14-------------------------------------|
|----------------------------------------|
|----------------------------------------|





Tablature Legend
----------------
 h   - hammer-on
 p   - pull-off
 b   - bend
 pb  - pre-bend
 r   - bend release (if no number after the r, then release immediately)
 /\  - slide into or out of (from/to "nowhere")
 s   - legato slide
 S   - shift slide
  - natural harmonic
[n]  - artificial harmonic
n(n) - tapped harmonic
 ~   - vibrato
 tr  - trill
 T   - tap
 TP  - trem. picking
 PM  - palm muting
\n/  - tremolo bar dip; n = amount to dip
 \n  - tremolo bar down
 n/  - tremolo bar up
/n\  - tremolo bar inverted dip
 =   - hold bend; also acts as connecting device for hammers/pulls
 <>  - volume swell (louder/softer)
 x   - on rhythm slash represents muted slash
 o   - on rhythm slash represents single note slash

Misc Legend
-----------
 |  - bar
||  - double bar
||o - repeat start
o|| - repeat end
*|  - double bar (ending)
 :  - bar (freetime)
 $  - Segno
 &  - Coda
Tempo markers -  = BPM(8/16=s8/s16),
where s8 = swing 8ths, s16 = swing 16ths
Comments